» » »

Gorillaz - On Melancholy Hill Tabs

Artists:  A B C D E F G H I J K L M N O P Q R S T U V W X Y Z # 

On Melancholy Hill Tabs

(ver. 7) Click to play this song!
Gorillaz
 Rating:
4.4/5 (5 votes)

 On Melancholy Hill lessons Tabs too difficult? Try these video lessons and learn fast
 
                [Intro]
    A                               E                       F#m
e|-------------------------------------------------------------------------------------------|
B|----2---2---2---2---2---2---2---2----------------------------------------------------------|
G|------2-------2-------2-------2-----3---3---3---3---3---3---2---2---2---2---2---2---2---2--| x 1
D|--2-------2-------2-------2-----------2-------2-------2-------4-------4-------4-------4----|
A|----------------------------------2-------2-------2-------4-------4-------4-------4--------|
E|-------------------------------------------------------------------------------------------|
   D               E
e|---------------------------------|
B|---------------------------------|
G|-------------------3---3---3---3-| x 2
D|---4---4---4---4-----2-------2---|
A|-----5-------5---2-------2-------|
E|-5-------5-----------------------|

    A                     E                   F#m
e|-----0-------0----0--------0---------0----0------------------------|
B|--2---------------------0-----------------------5-------5----5-----|
G|--2-------2-----2----2--1---------1-----1----2-------2-----2----2--|
D|--2---------------------2--------------------4---------------------|
A|--0---------------------2--------------------4---------------------|
E|------------------------0--------------------2---------------------|
   D          E             D          E
e|----0----------0----0--------0----------0----0-----|
B|-2----------0-------------2----------0-------------|
G|-3-------3--1-----1----1--3-------3--1-----1----1--|
D|-0----------2-------------0----------2-------------|
A|------------2------------------------2-------------|
E|------------0------------------------0-------------|

[Verse 1]
    A                               E                       F#m
e|-------------------------------------------------------------------------------------------|
B|----2---2---2---2---2---2---2---2----------------------------------------------------------|
G|------2-------2-------2-------2-----3---3---3---3---3---3---2---2---2---2---2---2---2---2--| x 1
D|--2-------2-------2-------2-----------2-------2-------2-------4-------4-------4-------4----|
A|----------------------------------2-------2-------2-------4-------4-------4-------4--------|
E|-------------------------------------------------------------------------------------------|
   D               E
e|---------------------------------|
B|---------------------------------|
G|-------------------3---3---3---3-| x 2
D|---4---4---4---4-----2-------2---|
A|-----5-------5---2-------2-------|
E|-5-------5-----------------------|

[Verse 2]
    A                               E                       F#m
e|-------------------------------------------------------------------------------------------|
B|----2---2---2---2---2---2---2---2----------------------------------------------------------|
G|------2-------2-------2-------2-----3---3---3---3---3---3---2---2---2---2---2---2---2---2--| x 1
D|--2-------2-------2-------2-----------2-------2-------2-------4-------4-------4-------4----|
A|----------------------------------2-------2-------2-------4-------4-------4-------4--------|
E|-------------------------------------------------------------------------------------------|
   D               E
e|---------------------------------|
B|---------------------------------|
G|-------------------3---3---3---3-| x 2
D|---4---4---4---4-----2-------2---|
A|-----5-------5---2-------2-------|
E|-5-------5-----------------------|
   D
e|------------------|
B|------------------|
G|------------------| x1
D|---4---4---4---4--|
A|-----5-------5----|
E|-5-------5--------|

[Hook]
    A                     E                   F#m
e|-----0-------0----0--------0---------0----0------------------------|
B|--2---------------------0-----------------------5-------5----5-----|
G|--2-------2-----2----2--1---------1-----1----2-------2-----2----2--|
D|--2---------------------2--------------------4---------------------|
A|--0---------------------2--------------------4---------------------|
E|------------------------0--------------------2---------------------|
   D          E             D          E
e|----0----------0----0--------0----------0----0-----|
B|-2----------0-------------2----------0-------------|
G|-3-------3--1-----1----1--3-------3--1-----1----1--|
D|-0----------2-------------0----------2-------------|
A|------------2------------------------2-------------|
E|------------0------------------------0-------------|

[Verse 3]
    A                               E                       F#m
e|-------------------------------------------------------------------------------------------|
B|----2---2---2---2---2---2---2---2----------------------------------------------------------|
G|------2-------2-------2-------2-----3---3---3---3---3---3---2---2---2---2---2---2---2---2--| x 1
D|--2-------2-------2-------2-----------2-------2-------2-------4-------4-------4-------4----|
A|----------------------------------2-------2-------2-------4-------4-------4-------4--------|
E|-------------------------------------------------------------------------------------------|
   D               E
e|---------------------------------|
B|---------------------------------|
G|-------------------3---3---3---3-| x 2
D|---4---4---4---4-----2-------2---|
A|-----5-------5---2-------2-------|
E|-5-------5-----------------------|

[Hook]
    A                     E                   F#m
e|-----0-------0----0--------0---------0----0------------------------|
B|--2---------------------0-----------------------5-------5----5-----|
G|--2-------2-----2----2--1---------1-----1----2-------2-----2----2--|
D|--2---------------------2--------------------4---------------------|
A|--0---------------------2--------------------4---------------------|
E|------------------------0--------------------2---------------------|
   D          E             D          E
e|----0----------0----0--------0----------0----0-----|
B|-2----------0-------------2----------0-------------|
G|-3-------3--1-----1----1--3-------3--1-----1----1--|
D|-0----------2-------------0----------2-------------|
A|------------2------------------------2-------------|
E|------------0------------------------0-------------|

[Verse 4]
    A                               E                       F#m
e|-------------------------------------------------------------------------------------------|
B|----2---2---2---2---2---2---2---2----------------------------------------------------------|
G|------2-------2-------2-------2-----3---3---3---3---3---3---2---2---2---2---2---2---2---2--| x 1
D|--2-------2-------2-------2-----------2-------2-------2-------4-------4-------4-------4----|
A|----------------------------------2-------2-------2-------4-------4-------4-------4--------|
E|-------------------------------------------------------------------------------------------|
   D               E
e|---------------------------------|
B|---------------------------------|
G|-------------------3---3---3---3-| x 3
D|---4---4---4---4-----2-------2---|
A|-----5-------5---2-------2-------|
E|-5-------5-----------------------|

   D
e|------------------|
B|------------------|
G|------------------| x1
D|---4---4---4---4--|
A|-----5-------5----|
E|-5-------5--------|

[Outro]
    A                     E                   F#m
e|-----0-------0----0--------0---------0----0------------------------|
B|--2---------------------0-----------------------5-------5----5-----|
G|--2-------2-----2----2--1---------1-----1----2-------2-----2----2--|
D|--2---------------------2--------------------4---------------------|
A|--0---------------------2--------------------4---------------------|
E|------------------------0--------------------2---------------------|
   D          E             D          E
e|----0----------0----0--------0----------0----0-----|
B|-2----------0-------------2----------0-------------|
G|-3-------3--1-----1----1--3-------3--1-----1----1--|  x 3
D|-0----------2-------------0----------2-------------|
A|------------2------------------------2-------------|
E|------------0------------------------0-------------|            
Submit corrections


        On Melancholy Hill lessons Hard to play? Try these video lessons and learn fast On Melancholy Hill lessons
        
↑ Back to top | Tablatures and chords for acoustic guitar and electric guitar, ukulele, drums are parodies/interpretations of the original songs. You may use it for private study, scholarship, research or language learning purposes only