» » »

Gorillaz - O Green World Bass

Artists:  A B C D E F G H I J K L M N O P Q R S T U V W X Y Z # 

O Green World Bass

(ver. 2) Click to play this song!
Gorillaz
 Rating:
4/5 (4 votes)

 O Green World lessons Tabs too difficult? Try these video lessons and learn fast
 
                GORILLAZ- O, GREEN WORLD
Tuning: Standard
Bassist: Murdoc Nicalls


Wait for the intro to stop, then the bass will enter.
Play this:

G:|----------------|----------------|
D:|----------------|----------------|
A:|----------------|----5--5--5--5--|   Play riff x4
E:|5--2-4-2-4-2-4-2|-0--------------|

The little bit in the middle is this

G:|----------------|----------------|----------------|----------------|
D:|----------------|----------------|----------------|----------------|
A:|5-5-5-5-3-5--8-8|-8-8-5-8--10-10-|10-10-8-10--12--|12-12/-000-3-5--|
E:|----------------|----------------|----------------|----------------|


The keyboard sounds like a bass, so re-enter when 2D starts singing.
Keyboard Section.  Play this section x4:

G:|----------------|----------------|----------------|----------------| 
D:|555-3-----------|555-3-4---------|555-3-----------|555-3-2---------|
A:|----------------|----------------|----------------|----------------|
E:|----------------|----------------|----------------|----------------|

G:|----------------|----------------|----------------|----------------|
D:|555-3-----------|555-3-4---------|555-3-----------|----------------|
A:|----------------|----------------|----------------|000-3-5---------|
E:|----------------|----------------|----------------|----------------|

Then after another rest, it will come back and play the first riff again

G:|----------------|----------------|
D:|----------------|----------------|
A:|----------------|----5--5--5--5--|   Play riff x4
E:|5--2-4-2-4-2-4-2|-0--------------|

Without a rest, return to the keyboard section.  Play it x4

G:|----------------|----------------|----------------|----------------| 
D:|555-3-----------|555-3-4---------|555-3-----------|555-3-2---------|
A:|----------------|----------------|----------------|----------------|
E:|----------------|----------------|----------------|----------------|

G:|----------------|----------------|----------------|----------------|
D:|555-3-----------|555-3-4---------|555-3-----------|----------------|
A:|----------------|----------------|----------------|000-3-5---------|
E:|----------------|----------------|----------------|----------------|
            
Submit corrections


        O Green World lessons Hard to play? Try these video lessons and learn fast O Green World lessons
        
↑ Back to top | Tablatures and chords for acoustic guitar and electric guitar, ukulele, drums are parodies/interpretations of the original songs. You may use it for private study, scholarship, research or language learning purposes only