» » »

Gorillaz - Hong Kong Tabs

Artists:  A B C D E F G H I J K L M N O P Q R S T U V W X Y Z # 

Hong Kong Tabs

(ver. 2) Click to play this song!
Gorillaz
 Rating:
4/5 (4 votes)

 Hong Kong lessons Tabs too difficult? Try these video lessons and learn fast
 
                ------------------------------------------------------------------------------
                             Hong Kong - Gorillaz
------------------------------------------------------------------------------

Hi, this tab is not exactly like the  
original version of the song, this is an easier version.

Tuning: eBGDAE

Song layout:
Intro
Verse
In between (Same as intro)
Bridge
In between (Same as intro)
Verse
In between (Same as intro)
Bridge
Ending (Same as intro)

Intro:

e|--2---2---2---2-|--0---0---0---0-|--2---2---2---2-|--0---0---0---0-|
B|--3---3---3---3-|--2---2---2---2-|--3---3---3---3-|--2---2---2---2-|
G|----------------|----------------|----------------|----------------|
D|----------------|----------------|----------------|----------------| Repeat
A|2---2---2---2---|0---0---0---0---|2---2---2---2---|0---0---0---0---| several
E|----------------|----------------|----------------|----------------| times.

Verse:

e|--2---2---2---2-|--0---0---0---0-|--0---0---0---0-|--2---2---2---2-|
B|--3---3---3---3-|--2---2---2---2-|--1---1---1---1-|--3---3---3---3-|
G|----------------|----------------|----------------|----------------|
D|----------------|----------------|----------------|----------------|
A|2---2---2---2---|0---0---0---0---|3---3---3---3---|2---2---2---2---|
E|----------------|----------------|----------------|----------------|
                                    Jump boats 
 Lo------------rd  hear me now.          and english boys.

e|--0---0---0---0-|--0---0---0---0-|--0---0---0---0-|--0---0---0---0-|
B|--0---0---0---0-|--2---2---2---2-|--0---0---0---0-|--2---2---2---2-|
G|----------------|----------------|----------------|----------------|
D|----------------|----------------|----------------|----------------|Repeat 2x
A|----------------|0---0---0---0---|----------------|0---0---0---0---|
E|3---3---3---3---|----------------|3---3---3---3---|----------------|
      Crashing out
                into the noise.     Electric fences and guns.

Inbetween (Same as intro)

Bridge:
e|--0---0---0---0-|--2---2---2---2-|--0---0---0---0-|--0---0---0---0-|
B|--1---1---1---1-|--3---3---3---3-|--2---2---2---2-|--1---1---1---1-|
G|----------------|----------------|----------------|----------------|
D|----------------|----------------|----------------|----------------|
A|3---3---3---3---|2---2---2---2---|0---0---0---0---|3---3---3---3---|
E|----------------|----------------|----------------|----------------|

     And laid in a stars light,        it begins to explode.

e|--0---0---0---0-|--2---2---2---2-|--0---0---0---0-|--0---0---0---0-|
B|--1---1---1---1-|--3---3---3---3-|--2---2---2---2-|--1---1---1---1-|
G|----------------|----------------|----------------|----------------|
D|----------------|----------------|----------------|----------------|
A|3---3---3---3---|2---2---2---2---|0---0---0---0---|3---3---3---3---|
E|----------------|----------------|----------------|----------------|

  And all the people in a dream,     wait for the machine.

e|--0---0---0---0-|--0---0---0---0-|
B|--2---2---2---2-|--1---1---1---1-|
G|----------------|----------------|
D|----------------|----------------|
A|4---4---4---4---|3---3---3---3---|
E|----------------|----------------|
  Pick the sh*t up,
          leave it cle-he-he-hee-he-hee-heen....

Lyrics:
Lord, hear me now
Junk boats and English boys
Crashing out into the noise
Electric fences and guards

You swallow me
I'm  a pill on your tongue
Here on the nighting floor
The neon lights make me numb

And laid in a star's light
It begins to explode
And all the people in a dream
Wait for the machine
Pick the sh*t up leave it clean

Kid hang over here
What you learning in school?
It's the rise of an eastern sun
on a big blue for everyone

The radio station disappeared
Music turned into thin air
The DJ was the last to leave
She had well conditioned hair
Was beautiful but nothing really was there

===============================================================================
            
Submit corrections


        Hong Kong lessons Hard to play? Try these video lessons and learn fast Hong Kong lessons
        
↑ Back to top | Tablatures and chords for acoustic guitar and electric guitar, ukulele, drums are parodies/interpretations of the original songs. You may use it for private study, scholarship, research or language learning purposes only