» » »

Gorillaz - Every Planet We Reach Is Dead Tabs

Artists:  A B C D E F G H I J K L M N O P Q R S T U V W X Y Z # 

Every Planet We Reach Is Dead Tabs

(ver. 1) Click to play this song!
Gorillaz
 Rating:
4/5 (4 votes)

 Every Planet We Reach Is Dead lessons Tabs too difficult? Try these video lessons and learn fast
 
                Every planet we reach is dead-Gorillaz
Tuning: Normal

Intro

E-------------------------------------------------|
B-3/5-5-0-3-5—0-3-5-------3/5-5-0-3-5—0-3-5-------|
G-------------------2-0------------------2-0------|
D-------------------------------------------------| x2
A-------------------------------------------------|
E-------------------------------------------------|

It gets slow at this point

Intro outro

E--------------------------------------|
B--------------------------------------|
G--------------------------------------|
D-2b-2-2-------------------------------|
A--------3-----------------------------|
E--------------------------------------|

Verse

E --------------------------------------------------|
B---------------------------------------------------|
G---------------------------------------------------|
D---------------------------------------------------|
A-7----7----5----3---3----2-------------------------|
E --------------------------------------------------|

Outro of verse

Play intro 3 times then on the 4th play this

E|-------------------3--------------------------------------------------------|
B|-5-5-5-5-5-5-5----5-3-------------------------------------------------------|
G|---------------------------2-0----------------------------------------------|
D|----------------------------------------------------------------------------|
A|----------------------------------------------------------------------------|
E|----------------------------------------------------------------------------|

That is as much of the song I could tab, since the rest is a played by violins

Good song I made it as accurate as possible
            
Submit corrections


        Every Planet We Reach Is Dead lessons Hard to play? Try these video lessons and learn fast Every Planet We Reach Is Dead lessons
        
↑ Back to top | Tablatures and chords for acoustic guitar and electric guitar, ukulele, drums are parodies/interpretations of the original songs. You may use it for private study, scholarship, research or language learning purposes only