Home » G » Gordon Lightfoot »

Gordon Lightfoot - Sundown Tabs

Artists:  A B C D E F G H I J K L M N O P Q R S T U V W X Y Z # 

Sundown Tabs

(ver. 2) Click to play this song!
Gordon Lightfoot
Transcribed by Slowhand


Gtr I (E A D G B E) - 'Acoustic 12-string Guitar w/ capo 2nd fret'
Gtr II (E A D G B E) - 'Acoustic Guitar w/ capo 2nd fret'
Gtr III (E A D G B E) - 'Electric Guitar w/ capo 2nd fret'


 Intro
  Q=108
  E5
 4/4
  Gtr I (Ac. 12-string Gtr. w/ capo 2nd fret)
  Q  Q  E E E E   E E e E E E E E   E E E. S E e E E   E e E E   E E E E
|----0----0---0-|-----0-0---0-----|---0----0---0---0-|---0---0-----0------|
|----5----5---5-|-----5-5---5-----|---5----5---5---5-|---5---5-----0------|
|----4----4---4-|-----4-4---4-----|---4-4--4---4---4-|---4---4---------4--|
|-2--2--2---2---|-2-2-2-2-2-2-2-2-|-2-2-2--2-2-2-x---|-2---2-----2---2-2--|
|-2--2--2---2---|-2-2-----2---2-2-|-2---2----2---x---|-2---2-----2---2----|
|-0-----0---0---|-0-0-----0---0-0-|-0---0----0---x---|-0---0-----0---0----|
|
| Gtr II (Ac. Gtr. w/ capo 2nd fret)
| W               W                 W                  H       a E E E E
|---------------|-----------------|------------------|--------------------|
|---------------|-----------------|------------------|--------------------|
|---------------|-----------------|------------------|--------------------|
|---------------|-----------------|------------------|-----------------5--|
|---------------|-----------------|------------------|-------------5-7----|
|---------------|-----------------|------------------|---------5s7--------|


  E E E E  E  E   E E   +E  E E E  E  E   E E
|-------0-----0---0-0-|-(0)-0---0-----0---0---|
|---3---3-----3---3-3-|-(3)-3---3-----3---3-5-|
|---4---4-----4---4-4-|-(4)-4---4-----4---4-4-|
|-2--------x------2---|-------x----x------2-2-|
|-2--------x----------|-------x----x----------|
|-0--------x----------|-------x----x----------|
|
| H       +E  E a E E    E  E Q   +E  E a E E
|---------------------|-----------------------|
|---------------------|-----------------------|
|---------------------|-----------------------|
|---------------------|---------------------5-|
|-7-------(7)-------5-|-------7---(7)-0-------|
|-------------0-5h7---|--0--7-----------5s7---|


  E E E E  E  E E E    E  E E E +E  E E E
|---0---0-----------|----------------------||
|---5---5-----------|-----5-------------5--||
|-4-4---4-----4-4-4-|-----4---4-(4)-4-4-4--||
|-2---2----2--2-2-2-|--2----2-2-(2)-2-2-2--||
|-2---2----2----2---|--2----2-------2-2----||
|-0--------0--------|--0----0--------------||
|
|                      >
| H       +E  E E E   +H.             E E
|-------------------|----------------------||
|-------------------|----------------------||
|-------------------|----------------------||
|-------------------|-------------------5--||
|-7-------(7)-----5-|-(5)------------------||
|-------------5-7---|----------------------||


 1st Verse
  E5
  E  E E E E E   E E   E  E E E E E E E
|-0--0-0-0-0-0---0-0-|-0--0-0-0-0-0-0-0-|
|-5--5-5-5-5-5---5-5-|-5--5-5-5-5-5-5-5-|
|-4--4-4-4-4-4---4-4-|-4--4-4-4-4-4-4-4-|
|-2--2-2-2-2-2---2-2-|-2--2-2-2-2-2-2-2-|
|-2--2-2-2-2-2---2-2-|-2--2-2-2-2-2-2-2-|
|-0--0-0-0-0-0---0-0-|-0--0-0-0-0-0-0-0-|
|
| H.           a E E   H.           E E
|--------------------|------------------|
|--------------------|------------------|
|--------------------|------------------|
|--------------------|------------------|
|-7----------------5-|----------------1s|
|--------------5s7---|-0----------------|


  B7sus4                E5
  E E E E E E E     E   E     E E     E  E  E  E E
|-0-0-0-0-0-0-0-----0-|-0-----0-0-----0--0--0--0-0-|
|-0-0-0-0-0-0-0-----0-|-5-----5-5-----5--5--5--5-5-|
|-2-2-2-2-2-2-2-----2-|-4-----4-4-----4--4--4--4-4-|
|-4-4-4-4-4-4-4-----4-|-2-----2-2-----2--2--2--2-2-|
|-2-2-2-2-2-2-2-----2-|-2-----2-2-----2--2--2--2-2-|
|---------------------|-0-----0-0-----0--0--0--0-0-|
|
| Q   E E E E E     E   E     E E     E +E  Q.
|---------------------|----------------------------|
|---------------------|----------------------------|
|---------------------|----------------------------|
|-----4-4---4-------4-|----------------------------|
|-2-------2-----------|-------0-------2-(2)--------|
|-------------3b3.5---|-3b3.5---3b3.5-0-(0)-0------|


                     A
  E E E E E E  E E    E E E E E E E E
|-0-0-0-0-0-0--0-0-|--0-0-0-0-0-0-0-0-|
|-5-5-5-5-5-5--5-5-|--2-2-2-2-2-2-2-2-|
|-4-4-4-4-4-4--4-4-|--2-2-2-2-2-2-2-2-|
|-2-2-2-2-2-2--2-2-|--2-2-2-2-2-2-2-2-|
|-2-2-2-2-2-2--2-2-|--0-0-0-0-0-0-0-0-|
|-0-0-0-0-0-0--0-0-|------------------|
|
| H       E Q.        W
|------------------|-!0---------------|
|------------------|-!2---------------|
|------------------|-!2---------------|
|-----------2------|-!2---------------|
|-----------2------|-!0---------------|
|---------0--------|------------------|


  D                        E5              E7E5
  E  E E E E E  E  E        E  E E E  E  E E E
|-2--2-2-2-2-2--2--2-----|--0--0-0-0--0--0-0-0-||
|-3--3-3-3-3-3--3--3-----|--5--5-5-5--5--5-3-5-||
|-2--2-2-2-2-2--2--2-----|--4--4-4-4--4--4-4-4-||
|-0--0-0-0-0-0--0--0-----|--2--2-2-2--2--2-2-2-||
|------------------------|--2--2-2-2--2--2-2-2-||
|------------------------|--0--0-0-0--0--0-0-0-||
|
| H.           +E  S  S     H        +E  E E E
|------------------------|---------------0-0-0-||
|-3------------(3)-------|--5--------(5)-5-3-5-||
|-2------------(2)-------|--4--------(4)-4---4-||
|-4------------(4)-------|--2--------(2)-------||
|-0------------(0)----2--|-(2)-------(2)-------||
|------------------0-(0)-|-(0)-------(0)-------||


 Chorus
  E5                A
  E E E E E E E E    E E E E E E E E
|-0-0-0-0-0-0-0-0-|--0-0-0-0-0-0-0-0-|
|-5-5-5-5-5-5-5-5-|--2-2-2-2-2-2-2-2-|
|-4-4-4-4-4-4-4-4-|--2-2-2-2-2-2-2-2-|
|-2-2-2-2-2-2-2-2-|--2-2-2-2-2-2-2-2-|
|-2-2-2-2-2-2-2-2-|--0-0-0-0-0-0-0-0-|
|-0-0-0-0-0-0-0-0-|------------------|
|
| W                  W
|-----------------|------------------|
|-----------------|-!2---------------|
|-----------------|-!2---------------|
|-2---------------|-!2---------------|
|-2---------------|-!0---------------|
|-0---------------|------------------|


  D                      E5
  E  E E E E E  E  E      E  E E E E E E     E
|-2--2-2-2-2-2--2--2---|--0--0-0-0-0-0-0-----0--|
|-3--3-3-3-3-3--3--3---|--5--5-5-5-5-5-5-----5--|
|-2--2-2-2-2-2--2--2---|--4--4-4-4-4-4-4-----4--|
|-0--0-0-0-0-0--0--0---|--2--2-2-2-2-2-2-----2--|
|----------------------|--2--2-2-2-2-2-2-----2--|
|----------------------|--0--0-0-0-0-0-0-----0--|
|
| H.           +E  S S    H.           E    +E
|----------------------|-!0---------------------|
|-3------------(3)-----|-!5---------------------|
|-2------------(2)-----|-!4------------2pb3r(2)-|
|-4------------(4)-----|-!2---------------------|
|-0------------(0)---2-|------------------------|
|------------------0---|------------------------|


                        2nd & 4th Verses
                      $
                         E5
  Q   Q    E  E   E E    E  E E E   E E E E
|-----0-------0-----0-||-0--0-0-0---0-0-0-0-|
|-----5-------5-----5-||-5--5-5-5---5-5-5-5-|
|-----4-------4-----4-||-4--4-4-4---4-4-4-4-|
|-2---2----2------2---||-2--2-2-2---2-2-2-2-|
|-2---2----2------2---||-2--2-2-2---2-2-2-2-|
|-0--------0------0---||-0--0-0-0---0-0-0-0-|
|
| E E E E +E.   S E E    Q.     E a E E E E
|---------------------||--------------------|
|---------------------||--------------------|
|-0-2-0---------------||--------------------|
|-------2-(2)---0---0-||--------------------|
|-----------------2---||--------------5-7-7-|
|---------------------||-0------x-5s7-------|


                       B7sus4
  E  E E E   E E E E   E E E E  E E E   E
|-0--0-0-0---0-0-0-0-|-0-0-0-0--0-0-0---0--|
|-5--5-5-5---5-5-5-5-|-0-0-0-0--0-0-0---0--|
|-4--4-4-4---4-4-4-4-|-2-2-2-2--2-2-2---2--|
|-2--2-2-2---2-2-2-2-|-4-4-4-4--4-4-4---4--|
|-2--2-2-2---2-2-2-2-|-2-2-2-2--2-2-2---2--|
|-0--0-0-0---0-0-0-0-|---------------------|
|
| Q.     E a E E E E   E E E E  E E S S E
|--------------------|---------------------|
|--------------------|---------------------|
|--------------------|---2---2-------------|
|--------------------|-4---4------4--------|
|--------------5-7-0-|-2-------/6---6s4-2--|
|-0------0-5s7-----0-|---------------------|


  E5                                       A                 D
  E  E E E   E E E E   E E E E  E  E E E   E E E E E E E E    E E E E E E E E
|-0--0-0-0---0-0-0-0-|-0-0-0-0--0--0-0-0-|-0-0-0-0-0-0-0-0-|--2-2-2-2-2-2-2-2-|
|-5--5-5-5---5-5-5-5-|-5-5-5-5--5--5-5-5-|-2-2-2-2-2-2-2-2-|--3-3-3-3-3-3-3-3-|
|-4--4-4-4---4-4-4-4-|-4-4-4-4--4--4-4-4-|-2-2-2-2-2-2-2-2-|--2-2-2-2-2-2-2-2-|
|-2--2-2-2---2-2-2-2-|-2-2-2-2--2--2-2-2-|-2-2-2-2-2-2-2-2-|--0-0-0-0-0-0-0-0-|
|-2--2-2-2---2-2-2-2-|-2-2-2-2--2--2-2-2-|-0-0-0-0-0-0-0-0-|------------------|
|-0--0-0-0---0-0-0-0-|-0-0-0-0--0--0-0-0-|-----------------|------------------|
|
| Q.     E a E E E E   H       +E  E E E   W                  W
|--------------------|-------------------|-----------------|------------------|
|--------------------|-------------------|-2---------------|-!3---------------|
|--------------------|-------------------|-2---------------|-!2---------------|
|------------------5-|-------------------|-2---------------|-!4---------------|
|-2------------5-7---|-7-------(7)-7-6-5-|-4---------------|-!0---------------|
|-0------0-5s7-------|-------------------|-----------------|------------------|


                        Chorus
              To Coda
  E5             E7E5    E5                A                  D
   E E E E  E  E E E     E E E E E E E E    E E E E E E E E   E  E E E E E E E
|--0-0-0-0--0--0-0-0--||-0-0-0-0-0-0-0-0-|--0-0-0-0-0-0-0-0-|-2--2-2-2-2-2-2-2-|
|--5-5-5-5--5--5-3-5--||-5-5-5-5-5-5-5-5-|--2-2-2-2-2-2-2-2-|-3--3-3-3-3-3-3-3-|
|--4-4-4-4--4--4-4-4--||-4-4-4-4-4-4-4-4-|--2-2-2-2-2-2-2-2-|-2--2-2-2-2-2-2-2-|
|--2-2-2-2--2--2-2-2--||-2-2-2-2-2-2-2-2-|--2-2-2-2-2-2-2-2-|-0--0-0-0-0-0-0-0-|
|--2-2-2-2--2--2-2-2--||-2-2-2-2-2-2-2-2-|--0-0-0-0-0-0-0-0-|------------------|
|--0-0-0-0--0--0-0-0--||-0-0-0-0-0-0-0-0-|------------------|------------------|
|
|  H       +E  E E E     W                  W                 H.           E E
|-!0-------(0)-0-0-0--||-----------------|------------------|------------------|
|-!5-------(5)-5-3-5--||-----------------|-!2---------------|-3----------------|
|-!4-------(4)-4---4--||-----------------|-!2---------------|-2----------------|
|-!2-------(2)--------||-2---------------|-!2---------------|-4----------------|
|-!2-------(2)--------||-2---------------|-!0---------------|-0--------------2-|
|-!0-------(0)--------||-0---------------|------------------|--------------0---|


  E5
  E E E E  E  E E E   E E E     E E E     E E
|-0-0-0-0--0--0-0-0-|-0-0-0-----0-0-0-----0-0-|
|-5-5-5-5--5--5-5-5-|-5-5-5-----5-5-5-----5-5-|
|-4-4-4-4--4--4-4-4-|-4-4-4-----4-4-4-----4-4-|
|-2-2-2-2--2--2-2-2-|-2-2-2-----2-2-2-----2-2-|
|-2-2-2-2--2--2-2-2-|-2-2-2-----2-2-2-----2-2-|
|-0-0-0-0--0--0-0-0-|-0-0-0-----0-0-0-----0-0-|
|
| H       +E  E E E   W
|-------------0-0-0-|-------------------------|
|-5-------(5)-5-3-5-|-------------------------|
|-4-------(4)-4---4-|-------------------------|
|-2-------(2)-------|-------------------------|
|-2-------(2)-------|-------------------------|
|-0-------(0)-------|-------------------------|
|
| Gtr III (El. Gtr. w/ capo 2nd fret)
| H        Q    E E   E E Q       E Q       e
|-------------------|-------------------------|
|-------------------|-------------------------|
|-------------------|-------------------------|
|-------------------|-----5b5.5-----5b5.5-----|
|-------------------|---7---------7---------7-|
|-----------------7s|=9-----------------------|


        E7                          E5
  E     E E  E    E   E   E E   E E E E  E  E E     E
|-x-----0-0--0----0---0---0-0-|-0-0-0-0--0--0-0-----0-||
|-x-----3-3--3----3---3---3-3-|-3-3-5-5--5--5-5-----5-||
|-x-----4-4--4----4---4---4-4-|-4-4-4-4--4--4-4-----4-||
|-x-----2-2--2----2---2---2-2-|-2-2-2-2--2--2-2-----2-||
|-x-----2-2--2----2---2---2-2-|-2-2-2-2--2--2-2-----2-||
|-x-----0-0--0----0---0---0-0-|-0-0-0-0--0--0-0-----0-||
|
| H               Q     a E E   H       +E  E Q
|-----------------------------|-----------------------||
|-----------------------------|-----------------------||
|-----------------------------|-----------------------||
|-----------------------------|---------------5b5.5---||
|---------------------------5-|-----------------------||
|-----------------------5s7---|-0-------(0)-0---------||
|
| E     E E  E   +Q       Q     W
|-----------------------------|-----------------------||
|-----------------------------|-----------------------||
|-----------------------------|-----------------------||
|-5b5.5---5-------------------|-----------------------||
|-------7---<7>-(<7>)---------|-----------------------||
|-----------------------------|-----------------------||


 3rd Verse
  E5
  E E E E E E E E   E E   E E  E  E E E
|-0-0-0-0-0-0-0-0-|-0-0---0-0--0--0-0-0-|
|-5-5-5-5-5-5-5-5-|-5-5---5-5--5--5-5-5-|
|-4-4-4-4-4-4-4-4-|-4-4---4-4--4--4-4-4-|
|-2-2-2-2-2-2-2-2-|-2-2---2-2--2--2-2-2-|
|-2-2-2-2-2-2-2-2-|-2-2---2-2--2--2-2-2-|
|-0-0-0-0-0-0-0-0-|-0-0---0-0--0--0-0-0-|
|
| >
| W                 Q   a E E +E  E E E
|-----------------|---------------------|
|-----------------|---------------------|
|-----------------|---------------------|
|-----------------|---------------------|
|-7---------------|---------5-(5)---7-5-|
|-0---------------|-0---5s7-------0-----|


  B7sus4            E5
  E E E E E E E E   E E E E     E  E E E
|-0-0-0-0-0-0-0-0-|-0-0-0-0-----0--0-0-0-||
|-0-0-0-0-0-0-0-0-|-5-5-5-5-----5--5-5-5-||
|-2-2-2-2-2-2-2-2-|-4-4-4-4-----4--4-4-4-||
|-4-4-4-4-4-4-4-4-|-2-2-2-2-----2--2-2-2-||
|-2-2-2-2-2-2-2-2-|-2-2-2-2-----2--2-2-2-||
|-----------------|-0-0-0-0-----0--0-0-0-||
|
| Q   E E E E Q     E Q   E    +E  E e e
|-----------------|----------------------||
|-----9-7---------|----------------------||
|-----9-7h8-------|-------2pb3r(2)-0-----||
|-----------9-7---|------------------2-0-||
|-----------------|----------------------||
|-----------------|-0-0------------------||


 Chorus
  E5                A
  E E E E E E E E    E E E E E E E E
|-0-0-0-0-0-0-0-0-|--0-0-0-0-0-0-0-0-|
|-5-5-5-5-5-5-5-5-|--2-2-2-2-2-2-2-2-|
|-4-4-4-4-4-4-4-4-|--2-2-2-2-2-2-2-2-|
|-2-2-2-2-2-2-2-2-|--2-2-2-2-2-2-2-2-|
|-2-2-2-2-2-2-2-2-|--0-0-0-0-0-0-0-0-|
|-0-0-0-0-0-0-0-0-|------------------|
|
| >
| W                  W
|-----------------|------------------|
|-----------------|-!2---------------|
|-----------------|-!2---------------|
|-2---------------|-!2---------------|
|-----------------|-!0---------------|
|-----------------|------------------|


  D                      E5
  E  E E E E E  E  E      E E E E  E  E E E
|-2--2-2-2-2-2--2--2---|--0-0-0-0--0--0-0-0-|
|-3--3-3-3-3-3--3--3---|--5-5-5-5--5--5-5-5-|
|-2--2-2-2-2-2--2--2---|--4-4-4-4--4--4-4-4-|
|-0--0-0-0-0-0--0--0---|--2-2-2-2--2--2-2-2-|
|----------------------|--2-2-2-2--2--2-2-2-|
|----------------------|--0-0-0-0--0--0-0-0-|
|
| H.           +E  S S    H       +E  E E E
|----------------------|-!0-------(0)---0-0-|
|-3------------(3)-----|-!5-------(5)---3-5-|
|-2------------(2)-----|-!4-------(4)-----4-|
|-4------------(4)-----|-!2-------(2)-2-----|
|-0------------(0)---2-|--------------------|
|------------------0---|--------------------|


                    A
  E E E E E E E E    E E E E E E E E
|-0-0-0-0-0-0-0-0-|--0-0-0-0-0-0-0-0-|
|-5-5-5-5-5-5-5-5-|--2-2-2-2-2-2-2-2-|
|-4-4-4-4-4-4-4-4-|--2-2-2-2-2-2-2-2-|
|-2-2-2-2-2-2-2-2-|--2-2-2-2-2-2-2-2-|
|-2-2-2-2-2-2-2-2-|--0-0-0-0-0-0-0-0-|
|-0-0-0-0-0-0-0-0-|------------------|
|
| W                  W
|-----------------|------------------|
|-----------------|-!2---------------|
|-----------------|-!2---------------|
|-----------------|-!2---------------|
|-2---------------|-!0---------------|
|-0---------------|------------------|


  D                      E5
  E  E E E E E  E  E      E E E E  E  E E E
|-2--2-2-2-2-2--2--2---|--0-0-0-0--0--0-0-0-||
|-3--3-3-3-3-3--3--3---|--5-5-5-5--5--5-5-5-||
|-2--2-2-2-2-2--2--2---|--4-4-4-4--4--4-4-4-||
|-0--0-0-0-0-0--0--0---|--2-2-2-2--2--2-2-2-||
|----------------------|--2-2-2-2--2--2-2-2-||
|----------------------|--0-0-0-0--0--0-0-0-||
|
| H.           +E  S S    H       +E  E E E
|----------------------|-!0-------(0)---0-0-||
|-3------------(3)-----|-!5-------(5)---3-5-||
|-2------------(2)-----|-!4-------(4)-----4-||
|-4------------(4)-----|-!2-------(2)-2-----||
|-0------------(0)---2-|--------------------||
|------------------0---|--------------------||


 Guitar Solo
  E5
  E E E E E E E  E    E  E  E       E   E  E E  E
|-0-0-0-0-0-0-0--0-|--0--0--0-------0---0--0-0--0-|
|-5-5-5-5-5-5-5--5-|--5--5--5-------5---5--5-5--5-|
|-4-4-4-4-4-4-4--4-|--4--4--4-------4---4--4-4--4-|
|-2-2-2-2-2-2-2--2-|--2--2--2-------2---2--2-2--2-|
|-2-2-2-2-2-2-2--2-|--2--2--2-------2---2--2-2--2-|
|-0-0-0-0-0-0-0--0-|--0--0--0-------0---0--0-0--0-|
|
| Gtr III
|                                   ~~~~~~~
| H       Q   E  E    E  E  E       E  +Q.      E
|------------------|------------------------------|
|------------------|------------------------------|
|------------------|-------12b12.5----------------|
|------------------|-12-14---------14-(14)--------|
|---------------14-|---------------------------14-|
|------------------|------------------------------|


   E  E  E       E   E  E E  E    E       E  E   E        E  E  E  E
|--0--0--0-------0---0--0-0--0-|--0-------0--0---0--------0--0--0--0--|
|--5--5--5-------5---5--5-5--5-|--5-------5--5---5--------5--5--5--5--|
|--4--4--4-------4---4--4-4--4-|--4-------4--4---4--------4--4--4--4--|
|--2--2--2-------2---2--2-2--2-|--2-------2--2---2--------2--2--2--2--|
|--2--2--2-------2---2--2-2--2-|--2-------2--2---2--------2--2--2--2--|
|--0--0--0-------0---0--0-0--0-|--0-------0--0---0--------0--0--0--0--|
|
|                ~~~~~~~
|  E  E  E       E  +Q.      E    E       E  E  +E        E  E  E  E
|------------------------------|--------------------------------------|
|------------------------------|--------------------------------------|
|-------12b12.5----------------|-12b12.5----12-(12)b12.5--------------|
|-12-14---------14-(14)--------|---------14--------------14----12-14--|
|---------------------------14-|----------------------------14--------|
|------------------------------|--------------------------------------|


                                                   E7
   E       E  E       E   E  E E E    E      E   E  E   E  E E  E
|--0-------0--0-------0---0--0-0-0-|--0------0---0--0------0-0--0-----|
|--5-------5--5-------5---5--5-5-5-|--5------5---5--3------3-3--3-----|
|--4-------4--4-------4---4--4-4-4-|--4------4---4--4------4-4--4-----|
|--2-------2--2-------2---2--2-2-2-|--2------2---2--2------2-2--2-----|
|--2-------2--2-------2---2--2-2-2-|--2------2---2--2------2-2--2-----|
|--0-------0--0-------0---0--0-0-0-|--0------0---0--0------0-0--0-----|
|
|                     ~~~~~~~                       ~~~~~~~
|  E       E  E       E  +H           E     +E   E  E  +Q.      E
|----------------------------------|----------------------------------|
|----------------------------------|------------17--------------------|
|-12b12.5----12b12.5---------------|-16b18r(16)----------------16b18==|
|---------14---------14-(14)-------|---------------14-(14)------------|
|----------------------------------|----------------------------------|
|----------------------------------|----------------------------------|


    E  E       E  E  +E  E E  E       +E  E  E  E     +E      E  E  E
|---0--0-------0--0--(0)-0-0--0----|--(0)-0--0--0-----(0)-----0--0--0------|
|---3--3-------3--3--(3)-3-3--3----|--(3)-3--3--3-----(3)-----3--3--3------|
|---4--4-------4--4--(4)-4-4--4----|--(4)-4--4--4-----(4)-----4--4--4------|
|---2--2-------2--2--(2)-2-2--2----|--(2)-2--2--2-----(2)-----2--2--2------|
|---2--2-------2--2--(2)-2-2--2----|--(2)-2--2--2-----(2)-----2--2--2------|
|---0--0-------0--0--(0)-0-0--0----|--(0)-0--0--0-----(0)-----0--0--0------|
|
|                 ~~~~~~~
|  +E.    +S   E  E  +Q.      E       +Q     E  E     +S   S  E  E  E
|----------------------------------|---------------------------------------|
|-------------17-------------15b17-|-(15)s==12-----------------------------|
|-(16)r==(16)----------------------|-----------14b15r(14)p12----14-14b16r==|
|----------------14-(14)-----------|-------------------------14------------|
|----------------------------------|---------------------------------------|
|----------------------------------|---------------------------------------|


    E      E  Q     +E  E Q      +E   Q         E  +E   E  E  E
|---0------0--0-----(0)-0-0----|-(0)--4---------4--(4)--4--4--4-|
|---3------3--3-----(3)-3-3----|-(3)--3---------3--(3)--3--3--3-|
|---4------4--4-----(4)-4-4----|-(4)--4---------4--(4)--4--4--4-|
|---2------2--2-----(2)-2-2----|-(2)--2---------2--(2)--2--2--2-|
|---2------2--2-----(2)-2-2----|-(2)--2---------2--(2)--2--2--2-|
|---0------0--0-----(0)-0-0----|-(0)--0---------0--(0)--0--0--0-|
|
|                >
|                ~~~~~~~
|  +S   S  E  E  E  +Q.      E    E   e  E     +E   e   E  E  e
|------------------------------|--------------------------------|
|------------12----------------|--------------------------------|
|-(14)p12-------12-(12)--------|--------12b13-(12)--------------|
|---------14-------------------|-12--14------------14-----12-14-|
|---------------------------14-|-----------------------14-------|
|------------------------------|--------------------------------|


  +E       E  E       E  +E  Q  E     +E  Q   E +H
|-(4)------4----------4--(4)-4--4-|---(4)-4---4-(4)--------------|
|-(3)------3----------3--(3)-3--3-|---(3)-3---3-(3)--------------|
|-(4)------4----------4--(4)-4--4-|---(4)-4---4-(4)--------------|
|-(2)------2----------2--(2)-2--2-|---(2)-2---2-(2)--------------|
|-(2)------2----------2--(2)-2--2-|---(2)-2---2-(2)--------------|
|-(0)------0----------0--(0)-0--0-|---(0)-0---0-(0)--------------|
|
|                     ~~~~~~~
|  E       E  E       E  +Q.    E   a  Q    Q    e  E E    +E
|---------------------------------|------------------------------|
|---------------------------------|------------------------------|
|-12b12.5----12b12.5--------------|------------------------------|
|---------14---------14-(14)------|-7s=9----7----5---------------|
|---------------------------------|-----------------7------------|
|---------------------------------|-------------------6b8==(6)r==|


  E5
   Q.     E +E  E   E E    Q     Q  +E  E     E E
|---------0-(0)-0-----0-|--0-----0--(0)-0-----0-0-|
|---------5-(5)-5-----5-|--5-----5--(5)-5-----5-5-|
|---------4-(4)-4-----4-|--4-----4--(4)-4-----4-4-|
|---------2-(2)-2-----2-|--2-----2--(2)-2-----2-2-|
|---------2-(2)-2-----2-|--2-----2--(2)-2-----2-2-|
|--0------0-(0)-0-----0-|--0-----0--(0)-0-----0-0-|
|
| +E  E E E +H             W
|-----------------------|-------------------------|
|-----------------------|-------------------------|
|-----------------------|-------------------------|
|-----------------------|-------------------------|
|-----0-----------------|-------------------------|
|-(6)---3-0-(0)---------|-------------------------|
|
| Gtr II
|  H         E  E a E E   +E  Q.    +E  E  a  E E
|-----------------------|-------------------------|
|-----------------------|-------------------------|
|-----------------------|-------------------------|
|-----------------------|-------------------------|
|---------------------5-|-(5)-7-----(7)---------5-|
|---------------0-5s7---|---------------5-(5)-7---|


                           Chorus
            D.S. al Coda &
                            E5
  E E E E +E  E E     E     E E E E E E E E
|-x-x-x-0-(0)-0-0-----0--||-0-0-0-0-0-0-0-0-|
|-x-x-x-5-(5)-5-5-----5--||-5-5-5-5-5-5-5-5-|
|-x-x-x-4-(4)-4-4-----4--||-4-4-4-4-4-4-4-4-|
|-x-x-x-2-(2)-2-2-----2--||-2-2-2-2-2-2-2-2-|
|-x-x-x-2-(2)-2-2-----2--||-2-2-2-2-2-2-2-2-|
|-x-x-x-0-(0)-0-0-----0--||-0-0-0-0-0-0-0-0-|
|
|                        Gtr II
| W                         W
|------------------------||-----------------|
|------------------------||-----------------|
|------------------------||-----------------|
|------------------------||-2---------------|
|------------------------||-2---------------|
|------------------------||-0---------------|
|
| H       +E  E Q           W
|------------------------||-----------------|
|------------------------||-----------------|
|------------------------||-----------------|
|---------------5b5.5----||-----------------|
|------------------------||-----------------|
|-0-------(0)-0----------||-----------------|


  A                  D
   E E E E E E E E   E  E E E E E E E
|--0-0-0-0-0-0-0-0-|-2--2-2-2-2-2-2-2-|
|--2-2-2-2-2-2-2-2-|-3--3-3-3-3-3-3-3-|
|--2-2-2-2-2-2-2-2-|-2--2-2-2-2-2-2-2-|
|--2-2-2-2-2-2-2-2-|-0--0-0-0-0-0-0-0-|
|--0-0-0-0-0-0-0-0-|------------------|
|------------------|------------------|
|
| Gtr II
|  W                 H.           E E
|------------------|------------------|
|-!2---------------|-3----------------|
|-!2---------------|-2----------------|
|-!2---------------|-4----------------|
|-!0---------------|-0--------------2-|
|------------------|--------------0---|
|
| Gtr III
|  W                 W
|------------------|------------------|
|------------------|------------------|
|------------------|------------------|
|------------------|------------------|
|------------------|------------------|
|------------------|------------------|


  E5
  E E     E  E  E  E E E   E E E E E E E E
|-0-0-----0--0--0--0-0-0-|-0-0-0-0-0-0-0-0--|
|-5-5-----5--5--5--5-5-5-|-5-5-5-5-5-5-5-5--|
|-4-4-----4--4--4--4-4-4-|-4-4-4-4-4-4-4-4--|
|-2-2-----2--2--2--2-2-2-|-2-2-2-2-2-2-2-2--|
|-2-2-----2--2--2--2-2-2-|-2-2-2-2-2-2-2-2--|
|-0-0-----0--0--0--0-0-0-|-0-0-0-0-0-0-0-0--|
|
| H            +E  E E E   W
|------------------0-0-0-|------------------|
|-5------------(5)-5-3-5-|------------------|
|-4------------(4)-4---4-|------------------|
|-2------------(2)-------|-2----------------|
|-2------------(2)-------|-2----------------|
|-0------------(0)-------|-0----------------|
|
| E E    +E  E  E  E E E   W
|------------------------|------------------|
|---5pb7r(5)-3-----------|------------------|
|---------------4--3-2---|------------------|
|----------------------5-|-2----------------|
|------------------------|------------------|
|------------------------|------------------|


  A                  D                  E5                      E7
   E E E E E E E E   E  E E E E E E E   E E E E  E  E E E     E E E E E E E E
|--0-0-0-0-0-0-0-0-|-2--2-2-2-2-2-2-2-|-0-0-0-0--0--0-0-0-|---0-0---0-0-0-0-0-|
|--2-2-2-2-2-2-2-2-|-3--3-3-3-3-3-3-3-|-5-5-5-5--5--5-5-5-|---5-3---3-3-3-3-3-|
|--2-2-2-2-2-2-2-2-|-2--2-2-2-2-2-2-2-|-4-4-4-4--4--4-4-4-|---4-4---4-4-4-4-4-|
|--2-2-2-2-2-2-2-2-|-0--0-0-0-0-0-0-0-|-2-2-2-2--2--2-2-2-|---2-2---2-2-2-2-2-|
|--0-0-0-0-0-0-0-0-|------------------|-2-2-2-2--2--2-2-2-|---2-2---2-2-2-2-2-|
|------------------|------------------|-0-0-0-0--0--0-0-0-|---0-0---0-0-0-0-0-|
|
|  W                 H.           E E   H       +E  E E E     W
|------------------|------------------|-------------0-0-0-|-------------------|
|-!2---------------|-3----------------|-5-------(5)-5-3-5-|-------------------|
|-!2---------------|-2----------------|-4-------(4)-4---4-|-------------------|
|-!2---------------|-4----------------|-2-------(2)-------|-------------------|
|-!0---------------|-0--------------2-|-2-------(2)-------|-------------------|
|------------------|--------------0---|-0-------(0)-------|-------------------|
|
|  W                 W                  E E E E  E  E E E   a W
|------------------|------------------|-------------------|-------------------|
|------------------|------------------|-------------------|-------------------|
|------------------|------------------|-------------------|-------------------|
|------------------|------------------|-------2--5----5---|-------------------|
|------------------|------------------|---2-5-------7---7-|-7s9---------------|
|------------------|------------------|-------------------|-------------------|


  E5                         A                   D
  E  E  E      E  E  E E E    E  E E E E E E E   E  E E E E E E E
|-0--0--0------0--0--0-0-0-|--0--0-0-0-0-0-0-0-|-2--2-2-2-2-2-2-2-|
|-5--5--5------5--5--5-5-5-|--2--2-2-2-2-2-2-2-|-3--3-3-3-3-3-3-3-|
|-4--4--4------4--4--4-4-4-|--2--2-2-2-2-2-2-2-|-2--2-2-2-2-2-2-2-|
|-2--2--2------2--2--2-2-2-|--2--2-2-2-2-2-2-2-|-0--0-0-0-0-0-0-0-|
|-2--2--2------2--2--2-2-2-|--0--0-0-0-0-0-0-0-|------------------|
|-0--0--0------0--0--0-0-0-|-------------------|------------------|
|
| Gtr II
| W                           W                  H.           E E
|--------------------------|-------------------|------------------|
|--------------------------|-!2----------------|-3----------------|
|--------------------------|-!2----------------|-2----------------|
|-2------------------------|-!2----------------|-4----------------|
|-2------------------------|-!0----------------|-0--------------2-|
|-0------------------------|-------------------|--------------0---|
|
| Gtr III
|                             >
| E  E  E      E +H          +H.           Q     W
|--------------------------|-------------------|------------------|
|--------------------------|-------------------|------------------|
|-9----12b12.5-9-(9)-------|-(9)---------------|------------------|
|---11---------------------|-------------------|------------------|
|--------------------------|-------------------|------------------|
|--------------------------|-------------------|------------------|


  E5
  E E E  E   E  E  E  E          E    E   E    E   E  E E  E
|-0-0-0--0---0--0--0--0------|---0----0---0----0---0--0-0--0-|
|-5-5-5--5---5--5--5--5------|---5----5---5----5---5--5-5--5-|
|-4-4-4--4---4--4--4--4------|---4----4---4----4---4--4-4--4-|
|-2-2-2--2---2--2--2--2------|---2----2---2----2---2--2-2--2-|
|-2-2-2--2---2--2--2--2------|---2----2---2----2---2--2-2--2-|
|-0-0-0--0---0--0--0--0------|---0----0---0----0---0--0-0--0-|
|
| H         +E  E  E  E          W
|---------------0--0--0------|-------------------------------|
|-5---------(5)-5--3--5------|-------------------------------|
|-4---------(4)-4-----4------|-------------------------------|
|-2---------(2)--------------|-------------------------------|
|-2---------(2)--------------|-------------------------------|
|-0---------(0)--------------|-------------------------------|
|
|                              Gtr III
| Q   E  E  +Q     E  E         +E   +E   Q       +Q    E  E
|-------12-(12)--------------|-------------------------------|
|-----------------15---------|-------------------------------|
|--------------------14pb16==|=(14)r(14)-12b13---(12)--------|
|----------------------------|-------------------------------|
|----------------------------|----------------------------14-|
|----------------------------|-------------------------------|


   Outro
    E7
     E  E  E       E   E  E E  E
||---0--0--0-------0---0--0-0--0-|
||o--3--3--3-------3---3--3-3--3-|
||---4--4--4-------4---4--4-4--4-|
||---2--2--2-------2---2--2-2--2-|
||o--2--2--2-------2---2--2-2--2-|
||---0--0--0-------0---0--0-0--0-|
|
|    W
||-------------------------------|
||o------------------------------|
||-------------------------------|
||-------------------------------|
||o------------------------------|
||-------------------------------|
|
|    E  E  E       E  +Q.      E
||-------------------------------|
||o------------------------------|
||--------12b12.5----------------|
||--12-14---------14-(14)--------|
||o---------------------------14-|
||-------------------------------|


                                 E5
   E  E  Q           E  E E  E    E       E  E      E  E  E  E  E
|--0--0--0-----------0--0-0--0-|--0-------0--0------0--0--0--0--0-|
|--3--3--3-----------3--3-3--3-|--5-------5--5------5--5--5--5--5-|
|--4--4--4-----------4--4-4--4-|--4-------4--4------4--4--4--4--4-|
|--2--2--2-----------2--2-2--2-|--2-------2--2------2--2--2--2--2-|
|--2--2--2-----------2--2-2--2-|--2-------2--2------2--2--2--2--2-|
|--0--0--0-----------0--0-0--0-|--0-------0--0------0--0--0--0--0-|
|
| Gtr III
|  E  E  E       E  +Q.      E    E       E  Q         e  E  E  E
|------------------------------|----------------------------------|
|------------------------------|----------------------------------|
|-------12b12.5----------------|-12b12.5----12b12.5---------------|
|-12-14---------14-(14)-----14-|---------14-----------14----12-14-|
|------------------------------|-------------------------14-------|
|------------------------------|----------------------------------|


          E7
  +E       S S  E       E  +E  E E  E  3x
|-(0)------4-4--4-------4--(4)-4-4--4--||
|-(5)------3-3--3-------3--(3)-3-3--3-o||
|-(4)------4-4--4-------4--(4)-4-4--4--||
|-(2)------2-2--2-------2--(2)-2-2--2--||
|-(2)------2-2--2-------2--(2)-2-2--2-o||
|-(0)------0-0--0-------0--(0)-0-0--0--||
|
|  E       E    E       E  +Q.      E  3x
|--------------------------------------||
|-------------------------------------o||
|-12b12.5------12b12.5-----------------||
|---------14-----------14-(14)---------||
|----------------------------------14-o||
|--------------------------------------||            
Submit corrections

↑ Back to top | Tablatures and chords for acoustic guitar and electric guitar, ukulele, drums are parodies/interpretations of the original songs. You may use it for private study, scholarship, research or language learning purposes only