Home » G » Goo Goo Dolls »

Goo Goo Dolls - Hate This Place Tabs

Artists:  A B C D E F G H I J K L M N O P Q R S T U V W X Y Z # 

Hate This Place Tabs

(ver. 1) Click to play this song!
Goo Goo Dolls
PROPS GO TO: Stephen Tripodi

This is a fairly easy song. I finished tabbing it in about 30 minutes. There's
let me know.


Intro (repeat 2 times)
e--------------------------------------------------------------------
B--------------------------------------------------------------------
G---7----5----3------------------------------------------------------
D---7----5----3-------------------------3--h5--p5--------------------
A---5----3----1--------3--h5--p5----3----------------3--3--h5--p5--3-
E--------------------------------------------------------------------

Verses (repeat 4 times)
e----------------------------------
B----------------------------------
G---2----3-------------------------
D---2----3-------------------------
A---0----1------5--p5--3--3--------
E----------------------------6--6--


Chorus (repeat 4 times)
e---------------------
B---------------------
G---7----5----3----5--
D---7----5----3----5--
A---5----3----1----3--
E---------------------

Bridge (repeat 8 times)
e--------------------
B--------------------
G---5-5-5-5-5-5-5-5--
D---5-5-5-5-5-5-5-5--
A---3-3-3-3-3-3-3-3--
E--------------------
            
Submit corrections

↑ Back to top | Tablatures and chords for acoustic guitar and electric guitar, ukulele, drums are parodies/interpretations of the original songs. You may use it for private study, scholarship, research or language learning purposes only