Home » G » Goldfinger »

Goldfinger - Is She Really Going Out With Him Tabs

Artists:  A B C D E F G H I J K L M N O P Q R S T U V W X Y Z # 

Is She Really Going Out With Him Tabs

(ver. 2) Click to play this song!
Goldfinger
[Intro]
e|----6-----------------------|
B|----6h8p6-------------------|
G|----------7-------10--------|
D|------------8-7-8----7-8----|
A|----------------------------|
E|----------------------------|

[Verse] 
e|--------3----------------3----------------1----------------1---------------|
B|--------5----------------3----------------3----------------1---------------| x7
G|--------5----------------4----------------3----------------2---------------|
D|---------------------------------------------------------------------------|
A|---------------------------------------------------------------------------|
E|---------------------------------------------------------------------------|
                                           
e|--------3----------------3-------------------------------------------------|
B|--------5----------------3-------------------------------------------------| x1
G|--------5----------------4-------------------------------------------------|
D|---------------------------------------------------------------------------|
A|---------------------------------------------------------------------------|
E|---------------------------------------------------------------------------|

[Chorus]
e|---------------------------------------------------------------------------|
B|---------------------------------------------------------------------------|
G|----3-3-3-3--------------------------5-5-x-5-5-----------------------------|
D|----3-3-3-3--3-3-3-3----3-3-x-3-3----5-5-x-5-5-----------------------------|
A|----1-1-1-1--3-3-3-3----3-3-x-3-3----3-3-x-3-3-----------------------------|
E|-------------1-1-1-1----1-1-x-1-1------------------------------------------|
PM---------------------

e|---------------------------------------------------------------------------|
B|---------------------------------------------------------------------------|
G|---------------------------------------------------------------------------|
D|----3-3-x-3-3--2-2-2--7-7--5-5----3-3-x-3-3--2-2-2--7-7----3---------------|
A|----3-3-x-3-3--2-2-2--7-7--5-5----3-3-x-3-3--2-2-2--7-7----3---------------|
E|----1-1-x-1-1--0-0-0--5-5--3-3----1-1-x-1-1--0-0-0--5-5----1---------------|


[Verse] a second guitar can ocassionaly play a varition of the intro
e|--------3----------------3----------------1----------------1---------------|
B|--------5----------------3----------------3----------------1---------------| x7
G|--------5----------------4----------------3----------------2---------------|
D|---------------------------------------------------------------------------|
A|---------------------------------------------------------------------------|
E|---------------------------------------------------------------------------|
                                             
e|--------3----------------3-------------------------------------------------|
B|--------5----------------3-------------------------------------------------| x1
G|--------5----------------4-------------------------------------------------|
D|---------------------------------------------------------------------------|
A|---------------------------------------------------------------------------|
E|---------------------------------------------------------------------------|

[Chorus]
e|---------------------------------------------------------------------------|
B|---------------------------------------------------------------------------|
G|----3-3-3-3--------------------------5-5-x-5-5-----------------------------|
D|----3-3-3-3--3-3-3-3----3-3-x-3-3----5-5-x-5-5-----------------------------|
A|----1-1-1-1--3-3-3-3----3-3-x-3-3----3-3-x-3-3-----------------------------|
E|-------------1-1-1-1----1-1-x-1-1------------------------------------------|
PM---------------------

e|---------------------------------------------------------------------------|
B|---------------------------------------------------------------------------|
G|---------------------------------------------------------------------------|
D|----3-3-x-3-3--2-2-2--7-7--5-5----3-3-x-3-3--2-2-2--7-7----3---------------|
A|----3-3-x-3-3--2-2-2--7-7--5-5----3-3-x-3-3--2-2-2--7-7----3---------------|
E|----1-1---1-1--0-0-0--5-5--7-7----1-1---1-1--0-0-0--5-5----1---------------|

[Interlude]
guitar 1
e|--------3----------------3----------------1----------------1---------------|
B|--------5----------------3----------------3----------------1---------------| 
G|--------5----------------4----------------3----------------2---------------|
D|---------------------------------------------------------------------------|
A|---------------------------------------------------------------------------|
E|---------------------------------------------------------------------------|
                                             
e|--------3----------------3-------------------------------------------------|
B|--------5----------------3-------------------------------------------------| 
G|--------5----------------4---------------3-3-3-3---------------------------|
D|-----------------------------------------3-3-3-3----3-3-3-3----------------|
A|-----------------------------------------1-1-1-1----3-3-3-3----------------|
E|----------------------------------------------------1-1-1-1----------------|
                                        PM--------------------

guitar 2 leading into the Bridge
e|----------------------------|
B|----------------------------|
G|----4b-4b-4b-4b-------------|
D|----------------------------|
A|----------------------------|
E|----------------------------|

[Bridge]
e|---------------------------------------------------------------------------|
B|---------------------------------------------------------------------------| x3
G|---------------------------------------------------------------------------|
D|----2-2-x-2-2----3-3-x-3-3----5-5-x-5-5----7-7-x-5-5-----------------------|
A|----2-2-x-2-2----3-3-x-3-3----5-5-x-5-5----7-7-x-5-5-----------------------|
E|----0-0-x-0-0----1-1-x-1-1----3-3-x-3-3----5-5-x-3-3-----------------------|

e|---------------------------------------------------------------------------|
B|---------------------------------------------------------------------------| x1
G|-------------------------------------------7/9-7-5h7p5---------------------|
D|----2-2-x-2-2----3-3-x-3-3----5-5-x-5-5------------------------------------|
A|----2-2-x-2-2----3-3-x-3-3----5-5-x-5-5------------------------------------|
E|----0-0-x-0-0----1-1-x-1-1----3-3-x-3-3------------------------------------|

[Interlude]
e|--------3----------------3----------------1----------------1---------------|
B|--------5----------------3----------------3----------------1---------------| 
G|--------5----------------4----------------3----------------2---------------|
D|---------------------------------------------------------------------------|
A|---------------------------------------------------------------------------|
E|---------------------------------------------------------------------------|
                                            
e|--------3----------------3-------------------------------------------------|
B|--------5----------------3-------------------------------------------------| 
G|--------5----------------4-------------------------------------------------|
D|---------------------------------------------------------------------------|
A|---------------------------------------------------------------------------|
E|---------------------------------------------------------------------------|

[Chorus]
e|---------------------------------------------------------------------------|
B|---------------------------------------------------------------------------|
G|----3-3-3-3--------------------------5-5-x-5-5-----------------------------|
D|----3-3-3-3--3-3-3-3----3-3-x-3-3----5-5-x-5-5-----------------------------|
A|----1-1-1-1--3-3-3-3----3-3-x-3-3----3-3-x-3-3-----------------------------|
E|-------------1-1-1-1----1-1-x-1-1------------------------------------------|
PM---------------------            
Submit corrections

↑ Back to top | Tablatures and chords for acoustic guitar and electric guitar, ukulele, drums are parodies/interpretations of the original songs. You may use it for private study, scholarship, research or language learning purposes only