Home » G » Golden Smog »

Golden Smog - Radio King Tabs

Artists:  A B C D E F G H I J K L M N O P Q R S T U V W X Y Z # 

Radio King Tabs

(ver. 2) Click to play this song!
Golden Smog
Radio King 
By Golden Smog
(Tweedy-Louris)

transcribed and submitted by Nick Sonderup 

Well, here is a great little tune off of "Down by the Old Mainstream",
probably one of the best records released that year.  The whole song
pretty much consists of a few different little riffs, and then a few
chords for the chorus.  Have fun with it and improvise if you want.

Intro
e --------------------------------3---3---3---3---3---3---3
B --3---3---3---3---3---3---3-3-0h1-0h1-0h1-0h1-0h1-0h1-0h1
G 0h2-0h2-0h2-0h2-0h2-0h2-0h2-0----------------------------
D ---------------------------------------------------------
A ---------------------------------------------------------
E ---------------------------------------------------------

E ---3-
B ---0-
G -----
D -----
A -----
E -----

Verse

 Pattern #1
e ---------------------------------------------------------
B ---------------------------------------------------------
G -------------------------------0h2-0---------------------
D ---------------------------0h2-------2-------------------
A -----0h2-----0h2-----0h2-2-------------------------------
E -3-3-----3-3-----3-3-------------------------------------

 Pattern #2
e ---------------------------------------------------------
B ---------------------------------------------------------
G ------------------------------0-2-0----------------------
D -----0h2-----0h2-----0h2--0h2----------------------------
A ---------------------------------------------------------
E -0-0-----0-0-----0-0-------------------------------------




Pattern #1		    Pattern #1
Let's go down, together, 3 a.m. tomorrow night

Pattern #2
I'll take you, over anything

Pattern #1

P#1			P#1
Let's go out together, broad daylight, in the street

P#2
I'll take you, anywhere

P#1

Chorus

Am	   C		F
Your music fills my car
D				   G
And your voice breaks every time
Bm	Am			               D			           Intro
I'm still wonderin', if I know who you are,  I hang on every line

P#1

P#1			    P#1
Let's go down, together, down by the old mainstream
P#2
I'll take you, over anything

P#1			P#1
Let's go back, in time, 1959
P#2
I'll take you, Radio King

P#1

Chorus

Am	   C		F
Your music fills my car
D				   G
And your voice breaks every time
Bm	Am			               D			           Intro
I'm still wonderin', if I know who you are,  I hang on every line

P#1

P#1

Outro same as intro

End on a G
            
Submit corrections

↑ Back to top | Tablatures and chords for acoustic guitar and electric guitar, ukulele, drums are parodies/interpretations of the original songs. You may use it for private study, scholarship, research or language learning purposes only