Home » G » Golden Earring »

Golden Earring - Radar Love Bass

Artists:  A B C D E F G H I J K L M N O P Q R S T U V W X Y Z # 

Radar Love Bass

(ver. 1) Click to play this song!
Golden Earring
 Rating:
4.8/5 (16 votes)
                Intro
G---------------|-----------|-----------2-----|-----------|
D---------2--4--|-----2-----|-----2--4-----2--|-----------|    
A------4--------|--4-----2--|--4--------------|--0--2-----|      
E---------------|-----------|-----------------|--------0--|


Main
G|-----------------------------------|-------------------------------|
D|-----------------------------------|-------------------------------| 
A|---------------------------0-------|-------------------------------|
E|-------2--2--2--2--2--2--2---------|--2--2--2--2--2--2--2--0—0-----|


Pre
G|---------------------------|--------------------------|--------------
D|---------------------------|--------------------------|--------------     
A|---------------------------|--2--2--2--2--------------|-------------- 
E|---0--0--0--0--0--0--0--0--|--------------2--2--2--2--|--0--0--0—0---

---------------|--------------------------|--------------------------|
---------------|--------------------------|--------------------------|
---------------|--2--2--2--2--2--2--2--2--|--4--4--4--4--4--4--4--4--|
---0--0--0--0--|--------------------------|--------------------------|


Course
G|-----|-----|--------|-----------|-------------------------------
D|-----|-----|--------|-----------|-------------------------------
A|--5--|-----|--------|--5--------|------0--------0--------0------     
E|-----|--5--|--0--2--|-----5--0--|---2-----2--2-----2--2-----2--- 


End
----------|----------------------------------|---------------|-------------
----------|----------------------------------|---------------|-------------
----------|--4--4--4--4--4—4-4 --------------|------0--3--2--|-----0--2---- 
---2--0---|----------------------------------|---2-----------|--2----------  

-------|--------------------|--------------|--------------------|-----
-------|--------------------|--2--3--4-----|--------------------|-----
-------|-----0--3--2--3--4--|-----------2--|-----0--3--2--3--4--|-----
---2---|--2-----------------|--------------|--2-----------------|-----

---------------||
---2--3--4-----||
---------------||
------------0--||
            
Submit corrections

↑ Back to top | Tablatures and chords for acoustic guitar and electric guitar, ukulele, drums are parodies/interpretations of the original songs. You may use it for private study, scholarship, research or language learning purposes only