Home » G » Godspeed You Black Emperor »

Godspeed You Black Emperor - 09-15-00 Part 1 Tabs

Artists:  A B C D E F G H I J K L M N O P Q R S T U V W X Y Z # 

09-15-00 Part 1 Tabs

(ver. 1) Click to play this song!
Godspeed You Black Emperor
[Violin Solo] (6:01)]

e|---------------------------------------------------------------------------|
B|---------------------------------------------------------------------------|
G|------------------------------------8-----------8-6------------------------|
D|--6---6-8-9-6-------6-8---6---6-8-9---6---6-8-9-----9-8-------9-8-6--------|
A|----6---------9-6-9-----9---6-----------6---------------9-6-9-------6------|
E|----------------------------------------------------------------------7-4--|

e|---------------------------------------------------------------------------|
B|---------------------------------------------------------------------------|
G|------------8-6-------------------------8---------6------------------------|
D|--6---6-8-9-----9-8-------9-8-6---6-8-9---9-6---6---9-8-------6-----------6|
A|----6---------------9-6-9-------6-------------6---------9-6-9---6-------6--|
E|------------------------------------------------------------------7-4-7----|            
Submit corrections

↑ Back to top | Tablatures and chords for acoustic guitar and electric guitar, ukulele, drums are parodies/interpretations of the original songs. You may use it for private study, scholarship, research or language learning purposes only