Home » G » God Is An Astronaut »

God Is An Astronaut - Worlds In Collision Bass

Artists:  A B C D E F G H I J K L M N O P Q R S T U V W X Y Z # 

Worlds In Collision Bass

(ver. 1) Click to play this song!
God Is An Astronaut
 Rating:
4.3/5 (15 votes)
                [Verse 1]
G|-----------------------------------------------------------------|
D|-----------------------------------------------------------------|
A|-5-5-5-5-5-5-5-5-5-5-5-5-5-5-5-5-3-3-3-3-3-3-3-3-1-1-1-1-1-1-1-1-|
D|-----------------------------------------------------------------|

G|-----------------------------------------------------------------|
D|-----------------------------------------------------------------|
A|-5-5-5-5-5-5-5-5-5-5-5-5-5-5-5-5-3-3-3-3-3-3-3-3-1-1-1-1h3-3-1---|
D|-----------------------------------------------------------------|

G|-----------------------------------------------------------------|
D|-----------------------------------------------------------------|
A|-5-5-5-5-5-5-5-5-5-5-5-5-5-5-5-5-3-3-3-3-3-3-3-3-1-1-1-1-1-1-1-1-|
D|-----------------------------------------------------------------|

G|--------------------------------------------------------------------------|
D|--------------------------------------------------------------------------|
A|-5-5-5-5-5-5-5-5-5-5-5-5-5-5-5-5-5/15-15-15-15-15-15-13-13-13-13h15-15-13-|
D|--------------------------------------------------------------------------|

G|-7-|
D|-7-|
A|-5-|
D|---|

End of guitar Break:
G|-3-/5-|
D|-3-/5-|
A|-1-/3-|
D|------|

[Verse 2]
G|-----------------------------------------------------------------|
D|-----------------------------------------------------------------|
A|-5-5-5-5-5-5-5-5-5-5-5-5-5-5-5-5-3-3-3-3-3-3-3-3-1-1-1-1-1-1-1-1-|
D|-----------------------------------------------------------------|

G|-----------------------------------------------------------------|
D|-----------------------------------------------------------------|
A|-5-5-5-5-5-5-5-5-5-5-5-5-5-5-5-5-3-3-3-3-3-3-3-3-1-1-1-1h3-3-1---|
D|-----------------------------------------------------------------|

G|-----------------------------------------------------------------|
D|-----------------------------------------------------------------|
A|-5-5-5-5-5-5-5-5-5-5-5-5-5-5-5-5-3-3-3-3-3-3-3-3-1-1-1-1-1-1-1-1-|
D|-----------------------------------------------------------------|

G|--------------------------------------------------------------------------|
D|--------------------------------------------------------------------------|
A|-5-5-5-5-5-5-5-5-5-5-5-5-5-5-5-5-5/15-15-15-15-15-15-13-13-13-13h15-15-13-|
D|--------------------------------------------------------------------------|

[Verse 3]
G|---------------------------|
D|---------------------------| Repeat 12 times
A|-5-5-5-5-5-5-5-------------|
D|---------------0-3-5-5-5-3-|

            
Submit corrections

↑ Back to top | Tablatures and chords for acoustic guitar and electric guitar, ukulele, drums are parodies/interpretations of the original songs. You may use it for private study, scholarship, research or language learning purposes only