Home » G » God Is An Astronaut »

God Is An Astronaut - Worlds In Collision Tabs

Artists:  A B C D E F G H I J K L M N O P Q R S T U V W X Y Z # 

Worlds In Collision Tabs

(ver. 1) Click to play this song!
God Is An Astronaut
 Rating:
4.3/5 (12 votes)
                [Verse 1]
e|--------------------------|-------------------------|
B|-10-12-10-12--------------|-10-12-10-12-------------| Repeat 2 times
G|-------------10-11--------|-------------11-12-------|
D|--------------------12-14-|-------------------14-12-|
A|--------------------------|-------------------------|
D|--------------------------|-------------------------|

[Break]
e|-----------------------------------------------|
B|-5-5-5/6-6-6/8-8-8/10-10-|-5-5-5/6-6-6/8-8-5-3-| Repeat 2 times
G|-----------------------------------------------|
D|-----------------------------------------------|
A|-----------------------------------------------|
D|-----------------------------------------------|

[Verse 1]
e|--------------------------|-------------------------|
B|-10-12-10-12--------------|-10-12-10-12-------------| Repeat 4 times
G|-------------10-11--------|-------------11-12-------|
D|--------------------12-14-|-------------------14-12-|
A|--------------------------|-------------------------|
D|--------------------------|-------------------------|


[Verse 3]
e|-------------|
B|-3-3-3-3-3-3-| Repeat 12 times
G|-2-2-2-2-2-2-|
D|-0-0-0-0-0-0-|
A|-------------|
D|-------------|

[Outro]
e|-------------|
B|-12-10-------| Repeat till the end
G|-------12----|
D|----------12-|
A|-------------|
D|-------------|

e|----------|
B|-12-15-13-|  Last time
G|----------|
D|----------|
A|----------|
D|----------|

            
Submit corrections

↑ Back to top | Tablatures and chords for acoustic guitar and electric guitar, ukulele, drums are parodies/interpretations of the original songs. You may use it for private study, scholarship, research or language learning purposes only