Home » G » Gloc 9 »

Gloc 9 - Panaginip Tabs

Artists:  A B C D E F G H I J K L M N O P Q R S T U V W X Y Z # 

Panaginip Tabs

(ver. 1) Click to play this song!
Gloc 9

-------------------------------------------------------------------------------
-------------------------------------------------------------------------------

hi! it's my first time tabbing.... hope it's accurate! please leave comments/ratings! 
(oh.. and enjoy =D)

this is the entire song.. just keep repeating until the end... =D


Tuning: Standard

e|--------3-----------5-----------3-----------3-----------3-----------3------|
B|-----0--3--3-----0--3--3-----0--3--3-----0--3--3--------5-----------5------|
G|-----------------------------------------------------0-----0-----0-----0---|
D|--------------------------2-----------0------------------------------------|
A|--------------------------------------------------3-----------2------------|
E|--3-----------2------------------------------------------------------------|

e|--------3------------------------------------------------------------------|
B|--------5------------------------------------------------------------------|
G|-----0-----0--------2------------------------------------------------------|
D|--------------0--4---------------------------------------------------------|
A|--0------------------------------------------------------------------------|
E|---------------------------------------------------------------------------|
            
Submit corrections

↑ Back to top | Tablatures and chords for acoustic guitar and electric guitar, ukulele, drums are parodies/interpretations of the original songs. You may use it for private study, scholarship, research or language learning purposes only