Home » G » Gloc 9 »

Gloc 9 - Lando Tabs

Artists:  A B C D E F G H I J K L M N O P Q R S T U V W X Y Z # 

Lando Tabs

(ver. 2) Click to play this song!
Gloc 9
LANDO feat Francis M. by GLOC 9 from his album DIPLOMA




Guitar Effect Settings:

Drive - Zoom

Patch Name - Boa,Metal Panel,Metal Zone,Acoustic


Guitar Legends:                              Use Capo for Gtr.2(2nd fret)

/ slide in                                     

x dead note                                  BEHRINGER(JUSTLISTEN)EARS

v vibrato

Variation:Standard

Guitar Tuning:Standard Tuning - eBGDAE Low to High

Intro:
Guitar 1
e|-0000-0000-3333-0000--    -3333-22222-0000---3333-0000-0000-|
B|-0000-1111-3333-0000-- 2x -3333-22222-0000---3333-0000-0000-|
G|-2222-0000-0000-2222--    -0000-33333-2222---0000-0000-2222-|
D|-2222-2222-0000-2222--    -0000-44444-2222---0000-2222-2222-|
A|-0000-3333-2222-0000--    -2222-44444-0000---2222-2222-0000-|
E|-xxxx-xxxx-3333-xxxx--    -3333-22222-xxxx---3333-0000-xxxx-|

Guitar 2
e|------0------0-------3------------|
B|-3/5----0------1-------3------2---|
G|-----------------2-------0------2-| 2x
D|----------------------------------|
A|----------------------------0-----|
E|----------------------------------|

e|---3------2---3------0------------3------2---3---|
B|-----3------3---2------0------------3------3---2-|
G|-------------------------0-----------------------|
D|---------------------------0---------------------|
A|-------------------------------------------------|
E|-3------2----------0------------3------2---------|

Verse:
e|-000000--33333-|
B|-000000--33333-|
G|-222222--00000-|
D|-222222--00000-|
A|-000000--22222-|
E|-xxxxxx--33333-|

e|-222222--------|
B|-222222--00000-|
G|-333333--00000-|
D|-444444--22222-|
A|-444444--22222-|
E|-222222--00000-|

Chorus:

Guitar 1:Play the Intro Chords but use distortion

Guitar 2:
e|-1212121212-----------17-------17----17---------------|
B|-------------------------17-------------17------------|
G|------------------------------------------------------|
D|---------------12h13----------------------------------|
A|-----------------------------------------------2-4-5v-|
E|------------------------------------------------------|

Another Verse
e|--------------|
B|--------------| OVER DRIVE...
G|-99999--99999-|
D|-xxxxx--xxxxx-|
A|-77777--55555-|
E|--------------|

e|------------------------------7-10-11-13-14------------------------|
B|----------------------------8---------------15-------19--23--------| Hardly to hear this part.
G|----------------------6-7-8--------------------17----xx--xx-----24-|
D|-------------2-5-6-8------------------------------20-17--21--24----|
A|-----2-4-4-5-------------------------------------------------------|
E|-1-5---------------------------------------------------------------|

That's all for this song..
            
Submit corrections

↑ Back to top | Tablatures and chords for acoustic guitar and electric guitar, ukulele, drums are parodies/interpretations of the original songs. You may use it for private study, scholarship, research or language learning purposes only