Home » G » Glen Hansard »

Glen Hansard - Say It To Me Now Tabs

Artists:  A B C D E F G H I J K L M N O P Q R S T U V W X Y Z # 

Say It To Me Now Tabs

(ver. 3) Click to play this song!
Glen Hansard
 Rating:
4/5 (4 votes)
                ---------------------------------------------------------------------------------
INTRO
e |---0--------------0-----------0-----------0--------------------|
B |---0--------------0-----------0-----------0--------------------|
G#|---0--------------0-----------0-----------0--------------------|
E |---0--------------11----------11----------11-------------------|
B |---12-------------12----------12----------12-------------------|
E |---0--------------0-----------10----------9--------------------| 

(Intro)x2
(Intro)Scratching at the surface now
       And I'm trying hard to work it out
(Intro)
       And so much has gone misunderstood
       And this mystery only leads to doubt

And I didn't 
understand                     When you reached down to take my hand

e |---0------------------0----------------------------------------0----0-----0--|
B |---0------------------0----------------------------------------0----0-----0--|
G#|---1------------------1----------------------------------------1----1-----1--|
E |---0------------------0----------------------------------------0----0-----0--|
B |---2------------------4----------------------------------------5----4-----2--|
E |---2------------------4----------------------------------------5----4-----2--|

And If you have something to say -
You better say it now
e |----0-----------------------------------------------------------|
B |----7-----------------------------------------------------------|
G#|----0-----------------------------------------------------------|
E |----7-----------------------------------------------------------|
B |----7-----------------------------------------------------------|
E |----0-----------------------------------------------------------|

(BRIDGE)
 -(transition) - 'Cause this is what you've waited for

e |----0-----0--------------------0----------------------------------|
B |----0-----12-------------------13---------------------------------|
G#|----0-----0--------------------0----------------------------------|
E |----0-----0--------------------0----------------------------------|
B |----0-----0--------------------0----------------------------------|
E |----0-----0--------------------0----------------------------------|

A chance to even up the score

e |----0------------------0-----------------------------------------|
B |----8------------------0-----------------------------------------|
G#|----0------------------0-----------------------------------------|
E |----9------------------5-----------------------------------------|
B |----9------------------5-----------------------------------------|
E |----0------------------0-----------------------------------------|

(Bridge)
And as these shadows fall on me now
I will somehow, yeah

(Bridge)
'Cause I'm picking up the message, Lord
And I'm closer than I've ever been before


So if you have something to say
e |----0-----0--------------------0----------------------------------|
B |----0-----12-------------------12---------------------------------|
G#|----0-----0--------------------0----------------------------------|
E |----0-----0--------------------0----------------------------------|
B |----0-----0--------------------0----------------------------------|
E |----0-----0--------------------0----------------------------------|

Say it to me now *(go back and forth between these chords)*
Say it to me now, just say it to me now, now....Oh,oh

e |----0-------------------0------------------------------------------|
B |----7-------------------5------------------------------------------|
G#|----0-------------------0------------------------------------------|
E |----7-------------------5------------------------------------------|
B |----7-------------------5------------------------------------------|
E |----0-------------------0------------------------------------------|


After vocals end                   End with this chord(strum slowly)
e |----0-----0------------------------0------------------------------|
B |----0-----0------------------------0------------------------------|
G#|----0-----0------------------------0------------------------------|
E |----9-----7-----5-----4------------0------------------------------|
B |----9-----7-----5-----4------------0------------------------------|
E |----0-----0------------------------5------------------------------|
            
Submit corrections

↑ Back to top | Tablatures and chords for acoustic guitar and electric guitar, ukulele, drums are parodies/interpretations of the original songs. You may use it for private study, scholarship, research or language learning purposes only