Home » G » Glen Hansard »

Glen Hansard - Fallen From The Sky Tabs

Artists:  A B C D E F G H I J K L M N O P Q R S T U V W X Y Z # 

Fallen From The Sky Tabs

(ver. 1) Click to play this song!
Glen Hansard
 Rating:
3.7/5 (6 votes)
                Fallen From The Sky by The Frames

Notes:
     Here's another song from The Frames, actually from the movie
     Once (2008). That's where i first saw them (well at least Glen
     Hansard hehe). I don't know them much yet, but i like their
     music anyway. So here's one of their playful music.

     I believe the strumming is easy enough so you guys can improvise
     it on your own.

     enjoy!

     ***Please ask permission from me before you use this tab for something
        else (like posting in another site and the like) other than personal
================================================================

-8-----5--|--3----3----| 2x
-10----6--|--3----5----|
-10----7--|--3----5----|
-10----7--|--5----5----|
-8-----5--|--5----3----|
-8-----5--|--3----3----|

You must've fallen from the sky
You must've shattered on the runway
you've brought so many to the light
And now you're by yourself

-8-----5--|--3----3----| 2x
-10----6--|--3----5----|
-10----7--|--3----5----|
-10----7--|--5----5----|
-8-----5--|--5----3----|
-8-----5--|--3----3----|

There comes a point in every fight
When giving up seems like the only way
When everyone one has said goodbye
And now you're on your own


-3----3----|  2x
-3----5----|
-3----5----|
-5----5----|
-5----3----|
-3----3----|
If you need somewhere to fall apart
Somewhere to fall apart

-8-----5--|--3----3----| 2x
-10----6--|--3----5----|
-10----7--|--3----5----|
-10----7--|--5----5----|
-8-----5--|--5----3----|
-8-----5--|--3----3----|
The rules of cain ,the rights you've made
The owls that caw, for those to blame
The broken glass, the fool that asked
The moving arrow to stop

-8-----5--|--3----3----| 2x
-10----6--|--3----5----|
-10----7--|--3----5----|
-10----7--|--5----5----|
-8-----5--|--5----3----|
-8-----5--|--3----3----|
You must've fallen from the sky
You must've come here in the pourin' rain
You took so many through the light
And now you're on your own

-3----3----|  2x
-3----5----|
-3----5----|
-5----5----|
-5----3----|
-3----3----|
If you need somewhere to fall apart
Somewhere to fall apart

-8-----5--|--3----3----| 2x
-10----6--|--3----5----|
-10----7--|--3----5----|
-10----7--|--5----5----|
-8-----5--|--5----3----|
-8-----5--|--3----3----|
The ruins of man, the bloody black
The fool that bull the prouder hag
The night the makes the rattle ack
The wolves that follow the outed man

----3----3----5----|
----3----5----6----|
----3----5----7----|
----5----5----7----|
----5----3----5----|
----3----3----5----|
The falling star the way we are
The vern

----3----3----5--|--3-| cut
----3----5----6--|--5-|
----3----5----7--|--5-|
----5----5----7--|--5-|
----5----3----5--|--3-|
----3----3----5--|--3-|
The rules that never ever mulitply


-8-----5--|--3----3----| 2x
-10----6--|--3----5----|
-10----7--|--3----5----|
-10----7--|--5----5----|
-8-----5--|--5----3----|
-8-----5--|--3----3----|

You must've fallen from the sky
You must've come here on the wrong way
You came among us every time
But now you're on your own

-3----3----|  2x
-3----5----|
-3----5----|
-5----5----|
-5----3----|
-3----3----|
If you need somewhere to fall apart
Somewhere to fall apart

-8-----5--|--3----3----| 2x
-10----6--|--3----5----|
-10----7--|--3----5----|
-10----7--|--5----5----|
-8-----5--|--5----3----|
-8-----5--|--3----3----|
The call you seek, the basket case
The rules of thumb you have to break
The raging skull, The rag to the bull
The nails that drag in either hand


-8-----5--|--3----3----3----|
-10----6--|--3----5----5----|
-10----7--|--3----5----5----|
-10----7--|--5----5----5----|
-8-----5--|--5----3----3----|
-8-----5--|--3----3----3----|
Well I will make my worker that
I know this place
I know this ti-----me

-8-----5--|--3----3----| till whenever you want ,,V,
-10----6--|--3----5----|
-10----7--|--3----5----|
-10----7--|--5----5----|
-8-----5--|--5----3----|
-8-----5--|--3----3----|
You must've fallen from the sky...
            
Submit corrections

↑ Back to top | Tablatures and chords for acoustic guitar and electric guitar, ukulele, drums are parodies/interpretations of the original songs. You may use it for private study, scholarship, research or language learning purposes only