Home » G » Glen Hansard »

Glen Hansard - All The Way Down Tabs

Artists:  A B C D E F G H I J K L M N O P Q R S T U V W X Y Z # 

All The Way Down Tabs

(ver. 1) Click to play this song!
Glen Hansard
 Rating:
3.8/5 (5 votes)
                All The Way Down - The Frames


	And again, hello =D Here's one of the touching songs from Once.
	I actually tabbed this listening to the song in the movie, but when i
	listen to the one on the CD, it's about always half a step higher.

	Hope you enjoy ,,V,

	***Please ask permission from me before you use this tab for something
           else (like posting in another site and the like) other than personal

=================================================================================

tuning: standard

stanza
                      (longer)   repeat 2x
------x--------x---------x----|
------3--------3---------3----|
------4--------4---------4----|
------4--------4---------4----|
-2----x---0----x---------x----|
------x--------x----3----x----|
You have broken me all the way down,
down upon my knees.
And you have broken me all the way now,
you'll be the last, you'll see.


			repeat 2x
------2-------3-----5--|
------2-------3-----5--|
------3-------4-----6--|
------4-------5-----7--|
------4-------5-----7--|
-2----2----3--3--5--5--|
Some fight you gave,
and I pushed you away


Chorus
					(strum last chord a bit longer)
------2---------------2-------3------|------2---------------2-----|
------3-------2-------3-------3------|------3-------2-------3-----|
------2-------2-------4-------4------|------2-------2-------4-----|
--0-----------2-------4-------5------|--0-----------2-------4-----|
----------0-------2---2-------5------|----------0-------2---2-----|
----------------------2---3---3------|----------------------2-----|
And in the morning when you turn in
I'll be far to sea.


                      (longer)   repeat 2x
------x--------x---------x----|
------3--------3---------3----|
------4--------4---------4----|
------4--------4---------4----|
-2----x---0----x---------x----|
------x--------x----3----x----|
And you have broken me all the way down.
You'll be the last, you'll see.


                      (longer)   repeat 2x
------x--------x---------x----|
------3--------3---------3----|
------4--------4---------4----|
------4--------4---------4----|
-2----x---0----x---------x----|
------x--------x----3----x----|
(humming)


	       2x
-2----3--5--|
-2----3--5--|
-3----4--6--|
-4----5--7--|
-4----5--7--|
-2----3--5--|
And what chance have we got
when you've missed every shot
for me?


Chorus
					(strum last chord a bit longer) repeat 2x
------2---------------2-------3------|------2---------------2-----|
------3-------2-------3-------3------|------3-------2-------3-----|
------2-------2-------4-------4------|------2-------2-------4-----|
--0-----------2-------4-------5------|--0-----------2-------4-----|
----------0-------2---2-------5------|----------0-------2---2-----|
----------------------2---3---3------|----------------------2-----|
And in the morning when you turn in
I'll be out of reach.
And in the darkness when you find this
I'll be far to sea.


                      (longer)   repeat 2x
------x--------x---------x----|
------3--------3---------3----|
------4--------4---------4----|
------4--------4---------4----|
-2----x---0----x---------x----|
------x--------x----3----x----|
And you have broken me all the way down.
You'll be the last, you'll see.


                      (longer)   repeat 2x
------x--------x---------x----|
------3--------3---------3----|
------4--------4---------4----|
------4--------4---------4----|
-2----x---0----x---------x----|
------x--------x----3----x----|
(humming)

(1 strum)
--x----|
--x----|
--4----|
--4----|
--2----|
--2----|
            
Submit corrections

↑ Back to top | Tablatures and chords for acoustic guitar and electric guitar, ukulele, drums are parodies/interpretations of the original songs. You may use it for private study, scholarship, research or language learning purposes only