» » »

Glaiza De Castro - Till Its Time Tabs

Artists:  A B C D E F G H I J K L M N O P Q R S T U V W X Y Z # 

Till Its Time Tabs

(ver. 1) Click to play this song!
Glaiza De Castro
 Rating:
2.6/5 (28 votes)

 Till Its Time  lessons Tabs too difficult? Try these video lessons and learn fast
 
                Intro:

e|--------------------------5-3-2--------------------------------------------|
B|------------------3-----3-------5-3---0---0--------------------------------|
G|----------------2---2-2---------------------2-2----------------------------|
D|--0-0h2-2-2h4-4-------------0-------------------5p3-0-7--------------------|
A|------------------------------------0-2-2---0-0----------------------------|
E|------------------------------------------------------5--------------------|

1st Stanza:
    Bm7              A                   G                     Bm7
            Let me sleep      even just for tonight,                'Cause I
e|-------------------0-------------------------------------------------------|
B|---3----------3------2-----2h3-2--------------------3---------3------------|
G|-----2---2-4-----------2----------2----2h4---4----2---2---2-----2----4---4-|
D|-------4-----------------0----------------------0-------0---------4--------|
A|-0-2---------------0----------------------------------------0-2------------|
E|---------------------------------------3-----------------------------------|
        A             G                                 Em            A
 can't keep you from wandering 'round my mind.               And even if
e|------0-------------3h5---------------------------------------------2------|
B|-3--------2h3---2-3------------3---3h5--5-----5----------------0--------2h3|
G|--------0---------------------------------------4-----------0----0----2----|
D|----------------------------------------------------------2----------------|
A|------0-------------------5-----------------5-----5-----2-----------0------|
E|--------------------3-------------------3-3---------3-0--------------------|
   D                Bm7              Em                             A
   I can't have you, Even if I can't make you mine.         I'll be standing 
e|-------------------5-----3-2-----------------2--------------------2----2h3-|
B|-5-------------5-----x--------3----3/5---------5-3-----0------------2------|
G|---7------7------------x-----------------0---------------0--2--2-----------|
D|-----7-------------------------------------0---------2---------------------|
A|-5-----------------2-------------------------------2--------------0--------|
E|-----------------------------------0---------------------------------------|

   waiting till it's time.
e|-2-------------------------------------------------------------------------|
B|-------3—-3---3/5---5-------5\3--------------------------------------------|
G|------------0-------------2------------------------------------------------|
D|------------------------2--------------------------------------------------|
A|----------0-----------0----------------------------------------------------|
E|---------------------------------------------------------------------------|

1st Chorus:
    Bb              C              D
      But I  can't let you ask  me why,     'Cause words will never be able to
e|------------------------------2—-2h3-2-2----------------2-----3------5-----|
B|-----3--3-T--3----5---3---5-T------------T-----3/5--------------3------7p5-|
G|----------A-----------------A------------A------------------------2--------|
D| ---------P-----------------P----0-------P--------------------0------------|
A|-0-1--------------3--------------------------------------------------------|
E|---------------------------------------------------------------------------|
           G       A              Bm            A      G        Bb
   define,     The happiness   I feel when you're around.        Can't let
e|-----------------------------5--5----3----0h2----2h5-----------------------|
B|-3--------0-T-3--5-------5-T-------------------------5-----3-T---3----3-T--|
G|------2---2-A--------7-----A---------------------------4-----A----------A--|
D|------------P--------------P-----------------------------3---P----------P--|
A|--------------------------------2-------------0----------------1-----------|
E|--------3--------5-----------------------------------3---------------------|
       C             D
  you look into   my eyes,    'Cause I'm afraid I might just give in when it
e|----------------2--2h3-2-2-------------2----3----------5-------------------|
B|-3---5---3--5-T------------T-----3/5----------3-------------7---5—----5\3--|
G|--------------A------------A----------------------2------------------------|
D|--------------P----0-------P----------------0------------------------------|
A|-----3---------------------------------------------------------------------|
E|---------------------------------------------------------------------------|
   Bm            A         G
 seems we're not ready to  try.
e|-5-----3----3--2---2—2h5---------------------------------------------------|
B|-------------------------5-----3-------------------------------------------|
G|---------------------------4-----------------------------------------------|
D|-----------------------------3---------------------------------------------|
A|-2-------------0-----------------------------------------------------------|
E|-------------------------3-------------------------------------------------|

2nd Stanza:
    Bm7                  A              G                      Bm7                  
             How could I possibly    go on,                              When 
e|-----------------------0---------------------------------------------------|
B|---3-----3-T---------3-----2h3-2-T----------T-----3-------T---3-----3-T----|
G|-----2-----A-----4-------2-------A-2--2h4-4-A---2---2---2-A-----2-----A----|
D|-------4---P---------------------P----------P-0-------0---P-------4---P----|
A|-0-2-------------------0------------------------------------0-2------------|
E|--------------------------------------3------------------------------------|
        A                   G                             Em               A
  all I have in my mind's together we  belong.                I stopped  belie-
e|------0-------------------3h5-----------------------3\2------------------2-|
B|----3--------2h3---2-T--3--------3-T—3h5-5—---5-3h5---------0----0---T-0---|
G|-4------0------------A-------------A---------------------------------A-----|
D|---------------------P-------------P----------------------2----------P-----|
A|------0-----------------------5--------------5------------2--------------0-|
E|--------------------------3--------------3-3------------0------------------|
             D                B                Em
   vin'     til you came  along.        What a chance  of a lifetime   that I'm
e|-----0---------------------------------------2-----2---2h3—3/5-------------|
B|—2-----T---5-------5--T—5h7-4-----4-T---0h3----0-----T—----------3-T—--0h3-|
G|---0---A-3-----7------A-------4-----A------------0---A-------------A-------|
D|-------P--------------P---------4---P----------------P-------------P-------|
A|-----------5----------------2----------------------------------------------|
E|---------------------------------------------0-----------------0-----------|
   A                       G       A
   giving this for.                  (2nd Chorus - just repeat the 1st Chorus)
e|-2------2h3----------------------------------------------------------------|
B|---2----------5---5-T---3--------------------------------------------------|
G|--------------------A-----4---4--------------------------------------------|
D|--------------------P-------5----------------------------------------------|
A|-0--------------0-----0----------------------------------------------------|
E|------------------------3-------5------------------------------------------|

3rd Chorus:
            G             A               D
            But I  can't let you ask   me why, 'Cause words will never be able
e|-----3\2---2—2h5---2----3-------3---3/5—5\2-2--------------2-----3------5--|
B|—3h5-------------T--------2-------T-----------T--3/5---------------3-------|
G|-----------------A----------0-----A-----------A----------------------2-----|
D|-----------------P----------------P-----0-----P------------------0---------|
A|------------------------0--------------------------------------------------|
E|---------3-----------------------------------------------------------------|
                 G       A              Bm         A         G          G
      to define,     The happiness   I feel when you're around.          Can't
e|-----------------------------------5--5----3----0h2----2h5--------------2h5|
B|-7p5---3--------0-T-3--5-------5-T-------------------------5-----3-T-------|
G|------------2---2-A--------7-----A---------------------------4-----A-------|
D|------------------P--------------P-----------------------------3---P-------|
A|--------------------------------------2-------------0----------------------|
E|--------------3--------5-----------------------------------3---------3-----|
             A               D
   let you look into      my eyes,  'Cause I'm afraid I might just give in
e|------2----3-------3---3/5—5\2-2-------------2----3----------5-------------|
B|--------------2------T-----------T-----3/5----------3-------------7---5----|
G|-----------------0---A-----------A----------------------2------------------|
D|---------------------P-----0-----P----------------0------------------------|
A|-----------0---------------------------------------------------------------|
E|---------------------------------------------------------------------------|
          Bm7            A         G
 when it seems we're not ready to  try.
e|---------5-----3----3--2---2-2h5-------------------------------------------|
B|—-5\3----------------------------5-----3-----------------------------------|
G|-----------------------------------4---------------------------------------|
D|-------------------------------------3-------------------------------------|
A|---------2-------------0---------------------------------------------------|
E|---------------------------------3-----------------------------------------|

Bridge:
   Em            Bm7              G             A                 F
   But I love you    I love you      But I'm afraid this can't go on
e|-------------------5--3--3h5-2-3-3------------------------------5-----5—---|
B|-----7-------7-----------------0-0------3--3—-3h5--------5---3----x-----T--|
G|--------9----------------------0-0-----------------0----------------x---A--|
D|-----------------4-------------0-0--------------------------------------P--|
A|---7-----------2---------------2-2------------0----------------------------|
E|-0-----------------------------3-3------------------------------1----------|
           G               D                             F                 G
                                         No, it can't go on
e|---5-5\3-3-----3—----3/5—5\2-2---------5---5--5-----2--5-----5—----5-5\3-3-|
B|—x---------0-----T-0-----------T-3---3-------------------x-----T-x---------|
G|-------------0---A-------------A---2-----------------------x---A-----------|
D|-----------------P-------0-----P-------------------------------P-----------|
A|----------------------------------------------0----------------------------|
E|---------3---------------------------------------------1-----------------3-|
                 D
                                   ~ ~           ~
e|-----3—----3/5—5\2-2-------------4---7-5-3-2-0-----------------------------|
B|-0-----T-0-----------T-3---3-------8---------------------------------------|
G|---0---A-------------A---2---------------------7---------------------------|
D|-------P-------0-----P-----------0-0---------------------------------------|
A|-----------------------------------------------0---------------------------|
E|-----------------------------------------3---------------------------------|

Last:
    Bm7               A                   G                    Bm7
           Moment for moment I'll cherish all my life.              Will hold 
e|--------------------0------------------------------------------------------|
B|---3-------------3----2h3-2---------------------------3-------3------------|
G|-----2---4----4-------------2-----------2h4-----4---2---2-------2---4---4--|
D|-------4------------------------------------------0-------0-------4--------|
A|-0-2----------------0---------------------------------------0-2------------|
E|----------------------------------------3----------------------------------|
        A     G       Em        A               Bm7     A           G
   it forever even  in  the end  ~  It says goodbye.
e|------0-----5--------------2----------------------5------------------------|
B|—---3---3-----x---3—--3h5------5--5-5-5---3---2h3---3-2--------------------|
G|-4--------------4---------------------------------------2---2—5/6-4--------|
D|----------------------------------------------------------2----------------|
A|------0----------------------0----------------2-------0--------------------|
E|------------3-------0---------------------------------------------3--------|            
Submit corrections


        Till Its Time  lessons Hard to play? Try these video lessons and learn fast Till Its Time  lessons
        
↑ Back to top | Tablatures and chords for acoustic guitar and electric guitar, ukulele, drums are parodies/interpretations of the original songs. You may use it for private study, scholarship, research or language learning purposes only