» » »

Girls Against Boys - Zodiac Love Team Tabs

Artists:  A B C D E F G H I J K L M N O P Q R S T U V W X Y Z # 

Zodiac Love Team Tabs

(ver. 1) Click to play this song!
Girls Against Boys
 Rating:
4/5 (4 votes)

 Zodiac Love Team lessons Tabs too difficult? Try these video lessons and learn fast
 
                Username: okregisterme

dropped-d tuning

\ - slide down
h - hammer-on
/// - pick continuously

  intro/verse (bass guitar)

1------------------------------------------
2-----7-------7--7---7--8--7--5------------
3-5-------6-----------------------5--7--5--
4------------------------------------------

1------------------------------------------
2-----7-------7--7-------------------------
3-5-------6----------8--8--8--8---8--8--8--
4------------------------------------------

  fill

1----
2----
3----
4----
5----
6-0--

  chorus

  bass guitar

1----------------
2----------------
3-2---3----------
4---------3---\--
|
| guitar
|
1----------------
2----------------
3----------------
4----------------
5----------------
6---------3---\--
|
| keys for guitar
|
1-------------------
2-------------------
3-------------------
4-9----10---10------
5-10---10---12---\--
6-------------------

  interlude (bass guitar)

1-------------------------------
2-------------------------------
3--------------------10h11--10--
4-3---0--0--0-------------------

  2nd verse - same as first

  2nd interlude (bass guitar)

1------------------------------------------
2-----7-------7--7-------------------------
3-5-------6----------8--8--8--8---8--8--8--
4------------------------------------------

1-------------------------------------------------
2-----7-------7--7---10--10--10--10---10--10--10--
3-5-------6---------------------------------------
4-------------------------------------------------

1------------------------------------------
2-----7-------7--7-------------------------
3-5-------6----------8--8--8--8---8--8--8--
4------------------------------------------

1--------
2--------
3-8-///--
4--------

  2nd chorus - same as first

  3rd interlude - same as 2nd, and listen for this fill (bass guitar)

1-----------------
2-12h14---12--12--
3-----------------
4-----------------

  end on

  bass guitar

1------------
2------------
3------------
4------------
5------------
6-0h2--0--0--
|
| guitar
|
1------------
2------------
3------------
4------------
5------------
6---------0--
            
Submit corrections


        Zodiac Love Team lessons Hard to play? Try these video lessons and learn fast Zodiac Love Team lessons
        
↑ Back to top | Tablatures and chords for acoustic guitar and electric guitar, ukulele, drums are parodies/interpretations of the original songs. You may use it for private study, scholarship, research or language learning purposes only