» » »

Gin Blossoms - The End Of The World Tabs

Artists:  A B C D E F G H I J K L M N O P Q R S T U V W X Y Z # 

The End Of The World Tabs

(ver. 1) Click to play this song!
Gin Blossoms
 Rating:
3.6/5 (5 votes)

 The End Of The World lessons Tabs too difficult? Try these video lessons and learn fast
 
                Good song off there new album, I think I got the root notes right butI know theres some 
to the chord that I couldn't decipher, any siggestions are welcome ( especially the" we 
alone" part

   Am                       G
|--------------------|-----------------------------|
|---11---9-----------|-----------------------------|
|-------------11-----|--11-----10-------8----------|
|--------------------|-----------------------------|
|--------------------|-----------------------------|
|--------------------|-----------------------------|
          F                     C
|--------------------|-----------------------------|
|--12----------------|-----------------------------|
|------11-----13-----|-----11----------------------|
|--------------------|-----------------------------|
|--------------------|-----------------------------|
|--------------------|-----------------------------|

 Am                 G
If you close your eyes,
F                       C
You'll see through my winner disguise,
Am                   G
And I'll hold your hand,
F                              C
You're falling over and over again.
G             D
It takes so long,
Em           C
It takes so long.

CHORUS
G      D     Em                C
Oh, running over the edge of a curve,
G           D             Em
Now freefalling till the end of the world,
G D        Em       C
Lost in focus of reality's blur,
G   D
We run alone.
  Em      C
Did you know?

You've seen through me,
Inside another branch of the tree,
And I'll never leave,
I'll find you everything you need.
It takes so long,
It takes so long.

CHORUS

Did you know?
You'll see,
That you're falling from the edge of the world.
But you know,
Don't believe,
That you're falling from the edge of the world.

It takes so long,
It takes so long.

CHORUS X2

Did you know?
You'll see,
That you're falling from the edge of the world.
            
Submit corrections


        The End Of The World lessons Hard to play? Try these video lessons and learn fast The End Of The World lessons
        
↑ Back to top | Tablatures and chords for acoustic guitar and electric guitar, ukulele, drums are parodies/interpretations of the original songs. You may use it for private study, scholarship, research or language learning purposes only