» » »

Gin Blossoms - Follow You Down Chords

Artists:  A B C D E F G H I J K L M N O P Q R S T U V W X Y Z # 

Follow You Down Chords

(ver. 1) Click to play this song!
Gin Blossoms
 Rating:
4.3/5 (28 votes)

 Follow You Down lessons Tabs too difficult? Try these video lessons and learn fast
 
                
[Intro] 
D-Em-C x4
e|-----------------------------------------------------------------------|
B|-------5--3-----3-----5--3-----3---------------------------------------|
G|------------4h5------------4h5-----------------------------------------| x4
D|------------------------------------5~---------------------------------|
A|-----------------------------------------------------------------------|
E|-----------------------------------------------------------------------|   

[Verse 1]

D               Em              C
Did you see the sky i think it means that we've been lost
D               Em              C       
Maybe one less time is all we need
D                  Em        C
I can't really help it if my tongue's all tied in knots
D               Em                 C
Jumpin' off a bridge is just the farthest that i've ever been


[Chorus]

G            Em        C            (Riff walk from C to D)
Anywhere you go, I'll follow you down
D             Em              C   (Riff walk from C to G)
Anyplace but those i know by heart
G            Em         C
Anywhere you go, I'll follow you down
D                Em                C
i'll follow you down but not that far

D-Em-C x1

[Verse 2]

D                     Em              C
I know we're headed somewhere i can see how far we've come
D                    Em        C
But still i can't remember anything
D                Em                C   
Lets not do the wrong thing and i swear it might be fun
D                 Em             C
It's a long way down but all the knots we've tied have come undone

[Chorus]

G            Em        C            (Riff walk from C to D)
Anywhere you go, I'll follow you down
D              Em              C   (Riff walk from C to G)
Anyplace but those i know by heart
G            Em         C
Anywhere you go, I'll follow you down
D                Em                C
i'll follow you down but not that far

[Solo]

Same pattern as verses
D-Em-C x4


[Verse 3]

D              Em            C
How you gonna ever find your place
D             Em         C
Runnin' in an artificial pace
D              Em            C
Are they gonna find us lying face down in the sand
D                 Em         C 
So what the hell, have we already been forever damned?

[Chorus]

G            Em        C            (Riff walk from C to D)
Anywhere you go, I'll follow you down
D             Em              C   (Riff walk from C to G)
Anyplace but those i know by heart
G            Em         C
Anywhere you go, I'll follow you down
D                Em                C
i'll follow you down but not that far

[Chorus]

G            Em        C            (Riff walk from C to D)
Anywhere you go, I'll follow you down
D             Em              C   (Riff walk from C to G)
Anyplace but those i know by heart
G            Em        C            (Riff walk from C to D)
Anywhere you go, I'll follow you down
D                Em                C
i'll follow you down but not that far
D                Em                 C
I'll follow you down, but not that far (follow you down)
D                Em                 C
I'll follow you down, but not that far (follow you down)
D                Em                 C
I'll follow you down, but not that far (follow you down)

[Outro]
same pattern as chorus
G-Em-C x3 start to fadeout more on last one

Riff Examples
Riff walk from C to D
e|---------------------------------------------------3---2---0---------------|
B|---------------------------------------------------------------3-----------|
G|---------------------------------------------------------------------------|
D|---------------------------------------------------------------------------|
A|---------------------------------------------------------------------------|
E|---------------------------------------------------------------------------|
        Anywhere  you  go,  I'll  follow  you  down


Riff walk from C to G
e|-------2-------------------------------------------------------------------|
B|-------3-----------------------------------------------------0---1---------|
G|-------2---------------------------------------------0---2-----------------|
D|-------0-------------------------------------------------------------------|
A|---------------------------------------------------omit this riff the 2x---|
E|---------------------------------------------------------------------------|
        Anyplace  but  those  I  know  by  heart
            
Submit corrections


        Follow You Down lessons Hard to play? Try these video lessons and learn fast Follow You Down lessons
        
↑ Back to top | Tablatures and chords for acoustic guitar and electric guitar, ukulele, drums are parodies/interpretations of the original songs. You may use it for private study, scholarship, research or language learning purposes only