Home » G » Gillian Welch »

Gillian Welch - Time The Revelator Chords

Artists:  A B C D E F G H I J K L M N O P Q R S T U V W X Y Z # 

Time The Revelator Chords

(ver. 1) Click to play this song!
Gillian Welch


Chords Used:
       EADGBe
Am:    002210
Asus4:  002200
Asus4/C:032200
C:     032010
D:     000232
Em:    022000
G:     320033

Standard Tuning (CAPO V) [All tabs and chords relative to capo]


Intro Chords and Tabs:
           Em             C              Asus4
e|---------------0-----------------------------------------------|
B|------------------0----------1p0-------------------------2-2-2-|
G|-0-0-0-0-----0------0-------------2p0-----------0--2-4---------|
D|-4-4-4-4---2----------2----2-------------0-2--4----------------|
A|---------2---------------3-------------------------------------|
E|---------0-----------------------------0-----------------------|

                  C            Asus4              C
e|-----0--0h2-2-2-2/3-5-3--2-0-----------------------------------|
B|-2/3-------------------------3-3/5-3-2-3/5-3-1-1---------------|
G|---------------------------------------------------4-2--0------|
D|----------------------------------------------------------2/4--|
A|---------------------------------------------------------------|
E|---------------------------------------------------------------|


Verse 1 chords:
Em           C       Asus4               Asus4/C
   Darling remember       from when you come to me
Em                 C           Asus4         Asus4/C
   That I’m the pretender, I’m not what I’m supposed to be
Am                C              G        D
   But who could know, lf I’m a traitor?
              Am         C
Times the revelator-rrrr-er

Verse 2 chords:
Em                  C    Asus4               Asus4/C
   They caught the katy,      and left me a mule to ride
Em             C    Asus4           Asus4/C
   The fortune lady came along she walked beside
Am           C              G         D
   But every word seemed to date her
              Am         C                  D
Times the revelator-rrrr-er, the revelator


Instrumental: Em C Asus4 Asus4/C   (x2)

Verse 3: use verse 2 chords
Up in the morning up and on the ride
I drive in to corning and all the spindles whine
And ever day is getting straighter
Times the revelator, the revelator


Instrumental: Em C Asus4 Asus4/C   (x2)

Verse 4: use verse 2 chords
Leaving the valley and f**king out of sight
I’ll go back to Cali, where I can sleep out every night 
and watch the waves and move the fader
Times the revelator, the revelator

Outro Verse:
Am           C            G      D
   Queen of fakes and Imitators
              Am         C
Times the revelator-rrrr-er


Instrumental Outro: Em C Asus4 Asus4/C   (x6) to fade out...
            
Submit corrections

↑ Back to top | Tablatures and chords for acoustic guitar and electric guitar, ukulele, drums are parodies/interpretations of the original songs. You may use it for private study, scholarship, research or language learning purposes only