» » »

Gigi Dagostino - Lamour Toujours Tabs

Artists:  A B C D E F G H I J K L M N O P Q R S T U V W X Y Z # 

Lamour Toujours Tabs

(ver. 1) Click to play this song!
Gigi Dagostino
 Rating:
4.2/5 (30 votes)

 Lamour Toujours  lessons Tabs too difficult? Try these video lessons and learn fast
 
                [Intro]
e|---------------------------------------------------------------------------|
B|----------1-0---0-0-1------------------------------------------------------|
G|----------------------2----2-2p0-2p0-2p0-2p0-2p0---------------------------|
D|--2---2-2-----------------------------------------2------------------------|  And repeat
A|---------------------------------------------------------------------------|
E|---------------------------------------------------------------------------|

Alternate version:
[Intro]
e|----------8-7---7-7-8-5----5-5p3-5p3-5p3-5p3-5p3---------------------------|
B|--5---5-5-----------------------------------------5------------------------|
G|---------------------------------------------------------------------------|
D|---------------------------------------------------------------------------|  And repeat
A|---------------------------------------------------------------------------|
E|---------------------------------------------------------------------------            
Submit corrections


        Lamour Toujours  lessons Hard to play? Try these video lessons and learn fast Lamour Toujours  lessons
        
↑ Back to top | Tablatures and chords for acoustic guitar and electric guitar, ukulele, drums are parodies/interpretations of the original songs. You may use it for private study, scholarship, research or language learning purposes only