Home » G » Giant Drag »

Giant Drag - Swan Song Tabs

Artists:  A B C D E F G H I J K L M N O P Q R S T U V W X Y Z # 

Swan Song Tabs

(ver. 1) Click to play this song!
Giant Drag
swan song by Giant Drag

standard E tuning

my first ever tab
i learnt it by ear

listen to the song to get the rythem right (y)

preforming it, where you could easly see how she plays it and mayby some parts i've missed ;p

(R) = reapet

e----------------------------------------------------------------------|
B----------------------------------------------------------------------|
G--13-(R)----13-13-13-13-----------------------------------------------|
D--11----------------------13-13-13-13---14-14-14-14- -13-13-13-13- 2X-|
A------------11-11-11-11---11-11-11-11---11-11-11-11---11-11-11-11-----| 
E----------------------------------------------------------------------|

e----------------------------------------------------------------------|
B----------------------------------------------------------------------|
G--13-(R)--------------------------------------------------------------|
D--11------------------------------------------------------------------|
A----------------------------------------------------------------------|
E--12------------------------------------------------------------------|

and there's a part when she goes like this, and there's also a part 
where she strike them only 2-3 times
e----------------------------------------------------------------------|
B----------------------------------------------------------------------|
G--13-(R)---9-(R)---16-(R)---13-(R)------------------------------------|
D--11-------7-------14-------11----------------------------------------|
A----------------------------------------------------------------------|
E--12-------8-------15-------12----------------------------------------|
            
Submit corrections

↑ Back to top | Tablatures and chords for acoustic guitar and electric guitar, ukulele, drums are parodies/interpretations of the original songs. You may use it for private study, scholarship, research or language learning purposes only