Home » G » Ghost Dance »

Ghost Dance - A Deeper Blue Tabs

Artists:  A B C D E F G H I J K L M N O P Q R S T U V W X Y Z # 

A Deeper Blue Tabs

(ver. 1) Click to play this song!
Ghost Dance
Tuning:std

intro + main
e|---------------------------|
B|---------------------------|
G|---2---0-----0-----0-------|
D|-0---3---2-----2-----2---2-|
A|-----------3-----3-----3---|
E|---------------------------|

bridge
e|-------------------------------|
B|-------------------------------|
G|-2-2-2-3-2-0-----0-0-0---------|
D|-------------0---------3-2---2-|
A|---------------------------3---|
E|-------------------------------|


chorus
A# B D


solo
e|-------------------------------------------|
B|-----------------8-------------------------|
G|-------------7-9---10-10-9-----------------|
D|-7-9-10-9-10---------------7-9-10-9-7----7-|
A|--------------------------------------10---|
E|-------------------------------------------|

e|-------------------------------------------|
B|------------8---8--------------------------|
G|--------7-9---9---9------------------------|
D|-7-9-10-------------7----7----7------------|
A|----------------------10---10---9-10-9-7---|
E|-------------------------------------------|

e|----------15-17-18-17-18-17--17-15-15-17-18-17--|
B|-15-17-18---------------------------------------|
G|------------------------------------------------|
D|------------------------------------------------|
A|------------------------------------------------|
E|------------------------------------------------|

e|-17-18-18-20-18-17-15-------15----15-------------|
B|----------------------18-18----18----17-18-17-15-|
G|-------------------------------------------------|
D|-------------------------------------------------|
A|-------------------------------------------------|
E|-------------------------------------------------|


outro [+ bass solo]
e|------------------------------|
B|------------------------------|
G|----7-9-10-9-7-9-7----9-------|
D|-10----------------10---------|
A|------------------------------|
E|------------------------------|

e|------------------------------|
B|------------------------------|
G|----7-9-10-9-7-9-7----9-------|
D|-10----------------10---10-7--|
A|------------------------------|
E|------------------------------|
            
Submit corrections

↑ Back to top | Tablatures and chords for acoustic guitar and electric guitar, ukulele, drums are parodies/interpretations of the original songs. You may use it for private study, scholarship, research or language learning purposes only