Home » G » Ghost »

Ghost - Death Knell Tabs

Artists:  A B C D E F G H I J K L M N O P Q R S T U V W X Y Z # 

Death Knell Tabs

(ver. 2) Click to play this song!
Ghost
verse
d||--------------------------||--------------------------
a||*------------------------*||--------------------------
F||--pm----------------------||--------------------------
C||--===----===----=---9-----||-===----===----===---3-5--
G||*-3-2-2--3-2-2--3-x-7-8--*||-3-2-2--3-2-2--3-2-2-1-3--
D||--1-0-0--1-0-0--1-x---6---||-1-0-0--1-0-0--1-0-0------
 
chorus, guitar one
d|------------------------------------------------------------
a|------------------------------------------------------------
F|--5\4-4-4-4-4-4-4-4-4-4-4-4-4--3-3-3-3-3-3-3-3-3-3-3-3-3-3--
C|--5\4-4-4-4-4-4-4-4-4-4-4-4-4--3-3-3-3-3-3-3-3-3-3-3-3-3-3--
G|--3\2-2-2-2-2-2-2-2-2-2-2-2-2--1-1-1-1-1-1-1-1-1-1-1-1-1-1--
D|------------------------------------------------------------
 
chorus, guitar one
d|------------------------------------------------------------------
a|------------------------------------------------------------------
F|-10-10-10-10-10-10-10-10-10-10-10-6-6-6-6-6-6-6-6-6-6-6-6-6-6-----
C|-10-10-10-10-10-10-10-10-10-10-10-6-6-6-6-6-6-6-6-6-6-6-6-6-6-----
G|--8--8--8--8--8--8--8--8--8--8--8-4-4-4-4-4-4-4-4-4-4-4-4-4-4-----
D|------------------------------------------------------------------
 
chorus, guitar two
d|-----------------------------------------------------------------
a|-----------------------------------------------------------------
F|-7---7---7---7---6---6---7---7----7---7---7---7---7---7---7---7--
C|---9---9---9---9---9---9---9---9----8---8---8---8---8---8---8---8
G|-----------------------------------------------------------------
D|-----------------------------------------------------------------
 
chorus, guitar two
d|------------------------------------------------------------------
a|-6---6---6---6---6---6---6---6----6---6---6---6---6---6---6---6---
F|---7---7---7---7---7---7---7---7----6---6---6---6---6---6---6---6-
C|------------------------------------------------------------------
G|------------------------------------------------------------------
D|------------------------------------------------------------------
 
d||---------------------------||
a||*-------------------------*||
F||---------------------------||
C||-----------------------3---||
G||*-3-2-2--3-2-2--3-2-2--3--*||
D||--1-0-0--1-0-0--1-0-0--1---||
 
verse two
d||--------------------------||
a||*------------------------*||
F||--------------------------||
C||--pm-----------------2----||
G||*-===----===----=-=----1-*||
D||--1-0-0--1-0-0--1-0-------||
 
d||---------------------------||
a||*-------------------------*||
F||----------------------3-5--||
C||--pm------------------3-5--||
G||*-===----===----===---1-3-*||
D||--1-0-0--1-0-0--1-0-0------||
 
chorus, guitar one
d|------------------------------------------------------------
a|------------------------------------------------------------
F|--5\4-4-4-4-4-4-4-4-4-4-4-4-4--3-3-3-3-3-3-3-3-3-3-3-3-3-3--
C|--5\4-4-4-4-4-4-4-4-4-4-4-4-4--3-3-3-3-3-3-3-3-3-3-3-3-3-3--
G|--3\2-2-2-2-2-2-2-2-2-2-2-2-2--1-1-1-1-1-1-1-1-1-1-1-1-1-1--
D|------------------------------------------------------------
 
chorus, guitar one
d|------------------------------------------------------------------
a|------------------------------------------------------------------
F|-7-7-7-7-7-7-7-7-7-7-7-7-7-7-7-7-3-3-3-3-3-3-3-3-3-3-3-3-3-3-3-3-3
C|-7-7-7-7-7-7-7-7-7-7-7-7-7-7-7-7-3-3-3-3-3-3-3-3-3-3-3-3-3-3-3-3-3
G|-5-5-5-5-5-5-5-5-5-5-5-5-5-5-5-5-1-1-1-1-1-1-1-1-1-1-1-1-1-1-1-1-1
D|------------------------------------------------------------------
 
chorus, guitar one
d|------------------------------------------------------------------
a|------------------------------------------------------------------
F|-10-10-10-10-10-10-10-10-10-10-10---------------------------------
C|-10-10-10-10-10-10-10-10-10-10-10-7-7-7-7-7-7-7-7-7-7-7-7-7-7-7---
G|--8--8--8--8--8--8--8--8--8--8--8-7-7-7-7-7-7-7-7-7-7-7-7-7-7-7---
D|----------------------------------5-5-5-5-5-5-5-5-5-5-5-5-5-5-5---
 
chorus, guitar two
d|-----------------------------------------------------------------
a|-----------------------------------------------------------------
F|-7---7---7---7---6---6---7---7----7---7---7---7---7---7---7---7--
C|---9---9---9---9---9---9---9---9----8---8---8---8---8---8---8---8
G|-----------------------------------------------------------------
D|-----------------------------------------------------------------
 
chorus, guitar two
d|-------------------------------------------------------------------
a|--6---6---6---6---6---6---6---6-----6---6---6---6---6---6---6---6--
F|----7---7---7---7---7---7---7---7-----7---7---7---7---7---7---7---7
C|-------------------------------------------------------------------
G|-------------------------------------------------------------------
D|-------------------------------------------------------------------
 
chorus, guitar two
d|------------------------------------------------------------------
a|-6---6---6---6---6---6---6---6-----5---5---5---5---5---5---5---5--
F|---5---5---5---5---6---5---5---5-----6---6---6---6---6---6---6---6
C|------------------------------------------------------------------
G|------------------------------------------------------------------
D|------------------------------------------------------------------
 
bridge
d|----------------------------------------------------------------------------
a|----------------------------------------------------------------------------
F|------------pm--------------------------------------pm--===-----------------
C|------------=======------------pm=====--------------===-2-1------===--===---
G|--6-6---6-6-1-3-0-2--6-6---6-6-1-3-0-2---6-6---6-6--3-2-----===--4-3--3-6-3-
D|--4-4---4-4----------4-4---4-4-----------4-4---4-4----------5-4-------1-4-1-
 
d|------------------------------------------------------------------
a|------------------------------------------------------------------
F|---------------4-3--------------------8-7--------------------4-3--
C|--2-------2--5----------3-2-----6---9------===-3-2------2--5------
G|--2--===--2---------===-3-2-===-6----------3-6-3-2--===-2---------
D|--0--0-0--0---------1-1-1-0-0-0-4----------1-4-1-0--0-0-0---------
 
d|------------------------------------------------------------------
a|------------------------------------------------------------------
F|------------------8-7------------------4-3------------------8-7---
C|-----3-2-----6--9------===-3-2-----2-5------===-3-2-----6-9-------
G|-===-3-2-===-6---------3-6-3-2-===-2--------3-2-3-2-===-6---------
D|-1-1-1-0-0-0-4---------1-4-1-0-0-0-0--------1-0-1-0-0-0-4---------
 
d|--------------------------------------------------------------------
a|--------------------------------------------------------------------
F|-----------------4-3--------------------8-7-------------------------
C|-===-3-2-----2-5------===-3-2-----6--9-------===-3-2------===-3-2-6-
G|-3-6-3-2-===-2--------3-2-3-2-===-6----------3-6-3-2------3-3-3-2-x-
D|-1-4-1-0-0-0-0--------1-0-1-0-0-0-4----------1-4-1-0------1-1-1-0-4-
 
d|------------------------------------------------------------------
a|------------------------------------------------------------------
F|------------------------------------------------------------------
C|-===-3-2------===-3-2-8-------------------------------------------
G|-3-6-3-2------3-3-3-2-x-------------------------------------------
D|-1-4-1-0------1-1-1-0-6-------------------------------------------
 
verse three
d||-------------------------------|| ---------------------------------
a||*-----------------------------*|| ---------------------------------
F||-------------------------------|| ---------------------------------
C||-------pm----------------------|| ----------------------------3-5--
G||*------===------===------7----*|| ------------------------===-1-3--
D||---1^0-0-0--1^0-0-0--1^0---6---|| --1^0-0-0--1^0-0-0--1^0-0-0------
 
chorus, guitar one
d|------------------------------------------------------------
a|------------------------------------------------------------
F|--5\4-4-4-4-4-4-4-4-4-4-4-4-4--3-3-3-3-3-3-3-3-3-3-3-3-3-3--
C|--5\4-4-4-4-4-4-4-4-4-4-4-4-4--3-3-3-3-3-3-3-3-3-3-3-3-3-3--
G|--3\2-2-2-2-2-2-2-2-2-2-2-2-2--1-1-1-1-1-1-1-1-1-1-1-1-1-1--
D|------------------------------------------------------------
 
chorus, guitar one
d|------------------------------------------------------------------
a|------------------------------------------------------------------
F|-10-10-10-10-10-10-10-10-10-10-10-6-6-6-6-6-6-6-6-6-6-6-6-6-6-----
C|-10-10-10-10-10-10-10-10-10-10-10-6-6-6-6-6-6-6-6-6-6-6-6-6-6-----
G|--8--8--8--8--8--8--8--8--8--8--8-4-4-4-4-4-4-4-4-4-4-4-4-4-4-----
D|------------------------------------------------------------------
 
chorus, guitar two
d|-----------------------------------------------------------------
a|-----------------------------------------------------------------
F|-7---7---7---7---6---6---7---7----7---7---7---7---7---7---7---7--
C|---9---9---9---9---9---9---9---9----8---8---8---8---8---8---8---8
G|-----------------------------------------------------------------
D|-----------------------------------------------------------------
 
chorus, guitar two
d|------------------------------------------------------------------
a|-6---6---6---6---6---6---6---6----6---6---6---6---6---6---6---6---
F|---7---7---7---7---7---7---7---7----6---6---6---6---6---6---6---6-
C|------------------------------------------------------------------
G|------------------------------------------------------------------
D|------------------------------------------------------------------
 
d||----------------------------------------||
a||*--------------------------------------*||
F||----------------------------------------||
C||--3-2------2---------2---------2-----3--||
G||*-3-2-===--2--=====--2--=====--2--=--3-*||
D||--1-0-0-0--0--0-0-0--0--0-0-0--0--0--1--||
            
Submit corrections

↑ Back to top | Tablatures and chords for acoustic guitar and electric guitar, ukulele, drums are parodies/interpretations of the original songs. You may use it for private study, scholarship, research or language learning purposes only