» » »

Get Up Kids - Valentine Tabs

Artists:  A B C D E F G H I J K L M N O P Q R S T U V W X Y Z # 

Valentine Tabs

(ver. 2) Click to play this song!
Get Up Kids
 Rating:
4/5 (4 votes)

 Valentine lessons Tabs too difficult? Try these video lessons and learn fast
 
                Valentine
The Get Up Kids


Intro 2nd guitar played over verse
e--------7----5------4--------------|---12--11--------------------------|
b----5-------------------------5~~--|-----------12------9----10~--------|
g-----------------------------------|-----------------------------------|
d-----------------------------------|-----------------------------------|
a-----------------------------------|-----------------------------------|
E-----------------------------------|-----------------------------------|

                               It's words you forget to anniversery songs
                               your good intentions count for little anymore

optional                                            VERSE
e------12---11------------------|----------------------------------------|
b------12---12-----12----9---10-|----------------------------------------|
g------------------13----9---9--|---9-9-9-9-9-9-------4-4-4-4-4-4-4-4----|
d-------------------------------|---9-9-9-9-9-9-------4-4-4-4-4-4-4-4----|
a-------------------------------|---7-7-7-7-7-7-------2-2-2-2-2-2-2-2----|
E-------------------------------|----------------------------------------|

if your sorry why you waging war
bottles bite back your tolerence been wrong
                Verse
e-----------------------------------------------------------------|
b-----------------------------------------------------------------|
g--6-6-6-6-6-6-6-6------------------------------------------------|
d--6-6-6-6-6-6-6-6-------7-7-7-7-7-7-7-7--------------------------|
a--4-4-4-4-4-4-4-4-------7-7-7-7-7-7-7-7--------------------------|
E------------------------5-5-5-5-5-5-5-5--------------------------|


CHORUS
Will you be my valentine If Im a world away
the contants aren't so constant anymore
e-----------------------------------------------------------------|
b-----------------------------------------------------------------|
g--9-9-9---------------------------6-6-6--------------------------|
d--9-9-9-----------9-9-9-----------6-6-6----------7-7-7-----------|
a--7-7-7-----------9-9-9-----------4-4-4----------7-7-7-----------|
E------------------7-7-7--------------------------5-5-5-----------|
            
Submit corrections


        Valentine lessons Hard to play? Try these video lessons and learn fast Valentine lessons
        
↑ Back to top | Tablatures and chords for acoustic guitar and electric guitar, ukulele, drums are parodies/interpretations of the original songs. You may use it for private study, scholarship, research or language learning purposes only