Home » G » Get Up Kids »

Get Up Kids - Out Of Reach Tabs

Artists:  A B C D E F G H I J K L M N O P Q R S T U V W X Y Z # 

Out Of Reach Tabs

(ver. 3) Click to play this song!
Get Up Kids
 Rating:
4.3/5 (6 votes)
                Artist – The Get Up Kids
Track – Out of Reach
Album – Something to Write Home About

This is my first tab. It isn’t in a lot of detail but the chords are correct and it sound fine when you play it like this. This is only the Intro and Verses (there both the same). cyas.

e -------------------------------------------------------------------------------
B -------------------------------------------------------------------------------
G ---4-4-4---------8-8-8------------------------------4-4-4----------------------
D ---4-4-4--4-4-4--8-8-8--6-6-6--2-2-2--4-4-4--6-6-6--4-4-4----------------------
A ---2-2-2--4-4-4--6-6-6--6-6-6--2-2-2--4-4-4--6-6-6--2-2-2----------------------
E ----------2-2-2---------4-4-4--0-0-0--2-2-2--4-4-4-----------------------------



e -------------------------------------------------------------------------------
B -------------------------------------------------------------------------------
G ----------------------------8-8-8----------------------------------------------
D -----------2---------4------8---8--6-6-6--2-2-2-2-2-2-2-2-2--4-4-4-4-4-4-4-4-4-
A -------------2---------4----6---6--6-6-6--2-2-2-2-2-2-2-2-2--4-4-4-4-4-4-4-4-4-
E ---2-1-0-0-----0-2-2-----2---------4-4-4--0-0-0-0-0-0-0-0-0--2-2-2-2-2-2-2-2-2-
            
Submit corrections

↑ Back to top | Tablatures and chords for acoustic guitar and electric guitar, ukulele, drums are parodies/interpretations of the original songs. You may use it for private study, scholarship, research or language learning purposes only