» » »

Get Up Kids - Most Depressing Song Tabs

Artists:  A B C D E F G H I J K L M N O P Q R S T U V W X Y Z # 

Most Depressing Song Tabs

(ver. 2) Click to play this song!
Get Up Kids
 Rating:
4/5 (4 votes)

 Most Depressing Song lessons Tabs too difficult? Try these video lessons and learn fast
 
                "(1)
The Get-up Kids
                          The most depressing song

PLEASE RATE OR COMMENT!


Intro/verse (listen to song to get right rhythm)

E----------------------------------------------------------------------------------
B----------------------------------------------------------------------------------
G-4-4----6-6-----8-8-8-8-8------------------------------4-4------------------------
D-4-4-x--6-6--x--8-8-8-8-8--6-6-6-6-6--2-2-x-4-4--6-6-x-4-4-------2-2-----4-4------
A-2-2-x--4-4--x--6-6-6-6-6--6-6-6-6-6--2-2-x-4-4--6-6-x-2-2-------2---2---4---4----
E---- x-------x------------ 4-4-4-4-4--0-0-x-2-2--4-4-x-------2-1-0-----0-2-----2--

E------------------------------------------
B------------------------------------------
G-8--8--8-8--------------------------------
D-8-----8-8--6-6-6-6---2-2-2-2--4-4-4-4----
A-6-----6-6--6-6-6-6---2-2-2-2--4-4-4-4----
E------------4-4-4-4---0-0-0-0--2-2-2-2----
 There is also some piano in the verse.


Chorus- (There’s room to believe)

E----------------------------------------------------------
B----------------------------------------------------------
G-4-4-4-4-4-4-x-----------------------------4--------------
D-4-4-4-4-4-4-x-2-2-2-2-2-2-x-6-x-x--4-x-x--4--------------
A-2-2-2-2-2-2-x-2-2-2-2-2-2-x-6-x-x--4-x-x--2--------------                       
E---------------0-0-0-0-0-0-x-4-x-x--2-x-x-----------------

That’s pretty much it but with some variations.


During the Piano solo the guitar solo plays the verse.


That’s it! Please rate or comment. –KingSam-
"            
Submit corrections


        Most Depressing Song lessons Hard to play? Try these video lessons and learn fast Most Depressing Song lessons
        
↑ Back to top | Tablatures and chords for acoustic guitar and electric guitar, ukulele, drums are parodies/interpretations of the original songs. You may use it for private study, scholarship, research or language learning purposes only