Home » G » Get Up Kids »

Get Up Kids - Mass Pike Tabs

Artists:  A B C D E F G H I J K L M N O P Q R S T U V W X Y Z # 

Mass Pike Tabs

(ver. 2) Click to play this song!
Get Up Kids
 Rating:
4/5 (4 votes)
                Artist - The Get Up Kids.
Song - Mass Pike.

Okay, this song isn't that hard to figure out. If I'm wrong in parts, I'm usre you could 
to the CD and sort it out.

Also, this is only for the guitar parts, not the piano or anything.

----------------------------------

Verse 1
This is the rythm part.
e|-----------------------|
B|-----------------------|
G|-77-7--------44-4------|
D|-77-7--77-7--44-4--777-|
A|-55-5--77-7--22-2--777-|
E|-------55-5--------555-|

Verse 2
Play this through a couple of times.
e|-------------|
B|-------------|
G|-67-76-67-76-|
D|-------------|
A|-------------|
E|-------------|

Chorus

e|---------555------|---------55555555-|
B|---------777------|---------77777777-|
G|-777-----777-444--|-777-----77777777-|
D|-777-777-555-444--|-777-777-55555555-|
A|-555-777-555-222--|-555-777-55555555-|
E|-----555----------|-----555----------|

e|---------555------|---------5555555555555555-|
B|---------777------|---------7777777777777777-|
G|-777-----777-444--|-777-----7777777777777777-|
D|-777-777-555-444--|-777-777-5555555555555555-|
A|-555-777-555-222--|-555-777-5555555555555555-|
E|-----555----------|-----555------------------|


Bridge
play this after the second chorus of the song.
e|------------------|
B|------------------|
G|-9999999999999999-|
D|-9999999999999999-|
A|-7777777777777777-|
E|------------------|

which leads into this.
e|-------------------------------------|
B|-------------------------------------|
G|-77777777----------EEEEEEEE----------|
D|-77777777-77777777-EEEEEEEE-99999999-|
A|-55555555-77777777-99999999-99999999-|
E|----------55555555----------77777777-|

This is the lead guitar part for the bridge. Played through twice.
e|----------------|
B|----------------|
G|-76-96-7-6-11-9-|
D|----------------|
A|----------------|
E|----------------|

played after the second time through, leading into the final chorus.
e|----------|
B|----------|
G|-7-6-11-9-|
D|----------|
A|----------|
E|----------|

Okay, all done.. Hopefully this is right.
thankyou for your time.
x
            
Submit corrections

↑ Back to top | Tablatures and chords for acoustic guitar and electric guitar, ukulele, drums are parodies/interpretations of the original songs. You may use it for private study, scholarship, research or language learning purposes only