» » »

Get Up Kids - Action & Action Tabs

Artists:  A B C D E F G H I J K L M N O P Q R S T U V W X Y Z # 

Action & Action Tabs

(ver. 2) Click to play this song!
Get Up Kids
 Rating:
4/5 (4 votes)

 Action & Action lessons Tabs too difficult? Try these video lessons and learn fast
 
                I hope it's correct... 
Just strungle a little bit with the chords for the rest of the song



  C#         B#          A         F#
--------------------------------------------
--------------------------------------------
----------xx-----xxxx-----------x-----xxxx--
--11111111xx-9-9-xxxx---7-7-7-7-x-4-4-xxxx--
--11111111xx-9-9-xxxx---7-7-7-7-x-4-4-xxxx--
--9-9-9-9-xx-7-7-xxxx---5-5-5-5-x-2-2-xxxx--

 G#               A                B#
--------------------------------------------
--------------------------------------------
-----------------------------------6-6-6-6--
-6-6-xx--6-6-xx---7-7-xx--7-7-xx---9-9-9-9--
-6-6-xx--6-6-xx---7-7-xx--7-7-xx---9-9-9-9--
-4-4-xx--4-4-xx---5-5-xx--5-5-xx---7-7-7-7--
            
Submit corrections


        Action & Action lessons Hard to play? Try these video lessons and learn fast Action & Action lessons
        
↑ Back to top | Tablatures and chords for acoustic guitar and electric guitar, ukulele, drums are parodies/interpretations of the original songs. You may use it for private study, scholarship, research or language learning purposes only