» » »

Gessle Per - Har Kommer Alla Kanslorna Tabs

Artists:  A B C D E F G H I J K L M N O P Q R S T U V W X Y Z # 

Har Kommer Alla Kanslorna Tabs

(ver. 1) Click to play this song!
Gessle Per
 Rating:
4/5 (4 votes)

 Har Kommer Alla Kanslorna lessons Tabs too difficult? Try these video lessons and learn fast
 
                Per Gessle - Här kommer alla känslorna

Intro /: G Em C G 
        G Em C D :/ G

 /: G G C G
    G G C D:/
Jag borde ha förstått dom när du tittade bort
att allting har ett sl*t, att allt det vackra är kort
nu sitter jag o fryser på en regnig perrong
       Em         Am           C            G
å här kommer alla känslorna på en å samma gång
     Em           Am          C           D     G
här kommer alla känslorna på en å samma gång


Vi möttes mitt i vintern när mitt hjärta var tömt
Jag placera' dig i drömmen som jag borde ha glömt
nu faller det från himlen som en trasig ballong

å här kommer alla känslorna på en å samma gång 
här kommer alla känslorna på en å samma gång

           C               G             D                      C
Jag sitter ensam kvar och hör varje tåg vissla hallå ifrån ett ringlande spår
        C                    G              C             D
var är du man kan undra när timmarna går du borde sett hur underbart jag mår


Jag ska bygga mig en båt och segla tills det blir vår
jag ska försöka att förtränga doften av ditt hår
jag ska skrika så det hörs igenom all grå betong
för här kommer alla känslorna på en å samma gång 
här kommer alla känslorna på en å samma gång

SOLO:
e|-----------------------------------------------------12--12-----------------------|
B|------------------------------------------------10-12--12--12-10------------------|
G|------------------------------------------9-9-11----------------11-9-11-11br-9----|
D|--/11p9~---------------/11p9~-----------------------------------------------------|
A|----------11-12--9------------11-12--12-12----------------------------------------|
E|-------------------12-------------------------------------------------------------|

e|----------------------------------|
B|----------------------------------|
G|----------------------------------|
D|-11-9----9br------------9br-------|
A|------12------12---9-12----12~~---|
E|-----------------12---------------|

Jag sitter ensam kvar och hör varje tåg vissla hallå ifrån ett evigt spår
men det är sl*t det är dags att slå en knut
öppna grinden för nu går jag ut

(vissla)

här kommer alla känslorna på en å samma gång 
här kommer alla känslorna på en å samma gång
            
Submit corrections


        Har Kommer Alla Kanslorna lessons Hard to play? Try these video lessons and learn fast Har Kommer Alla Kanslorna lessons
        
↑ Back to top | Tablatures and chords for acoustic guitar and electric guitar, ukulele, drums are parodies/interpretations of the original songs. You may use it for private study, scholarship, research or language learning purposes only