» » »

Gessle Per - Gungar Tabs

Artists:  A B C D E F G H I J K L M N O P Q R S T U V W X Y Z # 

Gungar Tabs

(ver. 1) Click to play this song!
Gessle Per
 Rating:
4/5 (4 votes)

 Gungar lessons Tabs too difficult? Try these video lessons and learn fast
 
                Per Gessle - Gungar  (Mazarin 2003)  

Intro

e|-----------------------------------------------------------|
B|---15-13-15-17----13~~-------15-13-15-17----13-------------|
G|---------------14------------------------14------14--12----|
D|-----------------------------------------------------------|
A|-----------------------------------------------------------|
E|-----------------------------------------------------------|

e|-------------------------------------------------------|
B|--15-13-15-17----13~~-----------13----15--15-----------|
G|--------------14------------14----14--------12~-------|
D|-------------------------------------------------------|
A|-------------------------------------------------------|
E|-------------------------------------------------------|

Vers 1                
   Am        D      G
e|---0----(2)--2----3----|
B|---1----(3)--3----3----|
G|---2----(2)--2----0----|
D|-2------(0)--0----0----|
A|-0----------------2----|
E|------------------3----|

Jag sitter och gungar
Jag sitter och gungar
Fram och tillbaka
Vill du vara med?

Jag sitter och tänker,
dagdrömmer och blundar
solen den värmer 
vill du vara med?
Du får vara med

Refr.

C                  G
 Och får jag frågan, 
               C
  om jag vågar
                 G
  följa med dig hem
                 Am           F               G
  prova fråga, svaret är så självklart enkelt
  aha..

(Intro igen)

Vers 2

Jag sitter och gungar
ett bär på min tunga
en koltrast med ungar
bor här brevid
vill du vara med?

Refr.

Och får jag frågan
om jag vågar
följa med dig hem
prova fråga, //: svaret är så självklart enkelt ://

(Intro igen)
            
Submit corrections


        Gungar lessons Hard to play? Try these video lessons and learn fast Gungar lessons
        
↑ Back to top | Tablatures and chords for acoustic guitar and electric guitar, ukulele, drums are parodies/interpretations of the original songs. You may use it for private study, scholarship, research or language learning purposes only