» » »

Germs - Lexicon Devil Tabs

Artists:  A B C D E F G H I J K L M N O P Q R S T U V W X Y Z # 

Lexicon Devil Tabs

(ver. 2) Click to play this song!
Germs
 Rating:
4.3/5 (26 votes)

 Lexicon Devil lessons Tabs too difficult? Try these video lessons and learn fast
 
                e|------------------|
B|------------------|
G|------------------|
D|---7--7--7--7--7--|
A|---7--7--7--7--7--|
E|---5--5--5--5--5--|

[Intro]


e|---------------------------------|
B|---------------------------------|
G|------------9--7-----------7-----|
D|---9--9--9--9--7--7--7--7--7--7--|
A|---9--9--9--7--5--7--7--7--5--7--|
E|---7--7--7--------5--5--5-----5--|
play with chorus: "I'm a Lexicon devil with a battered brain..."


e|------------------|
B|------------------|
G|------------------|
D|---7--7--7--7--7--|
A|---7--7--7--7--7--|
E|---5--5--5--5--5--|
End of chorus: "Gimme gimme this..."


e|---------------------------------|
B|---------------------------------|
G|---------------------------------|
D|---7--7--7--7--7--9--9--9--9--9--|
A|---7--7--7--7--7--9--9--9--9--9--|
E|---5--5--5--5--5--7--7--7--7--7--|
First Verse: "I want toy tin soldiers..."

Play chorus again

Second Verse (Same as first verse)

e|---------------------------------|
B|---------------------------------|
G|------------9--7-----------7-----|
D|---9--9--9--9--7--7--7--7--7--7--|
A|---9--9--9--7--5--7--7--7--5--7--|
E|---7--7--7--------5--5--5-----5--|
Play chorus again

e|---------------------------------|
B|---------------------------------|
G|------------9--7-----------7--14-|
D|---9--9--9--9--7--7--7--7--7--14-|
A|---9--9--9--7--5--7--7--7--5--12-|
E|---7--7--7--------5--5--5--------|
End with this bar
            
Submit corrections


        Lexicon Devil lessons Hard to play? Try these video lessons and learn fast Lexicon Devil lessons
        
↑ Back to top | Tablatures and chords for acoustic guitar and electric guitar, ukulele, drums are parodies/interpretations of the original songs. You may use it for private study, scholarship, research or language learning purposes only