» » »

Gerard Way - Baby Youre A Haunted House Bass

Artists:  A B C D E F G H I J K L M N O P Q R S T U V W X Y Z # 

Baby Youre A Haunted House Bass

(ver. 1) Click to play this song!
Gerard Way
 Rating:
4.4/5 (17 votes)

 Baby Youre A Haunted House lessons Tabs too difficult? Try these video lessons and learn fast
 
                [Intro]

G|-----------------------------------------------------------------|
D|-----------------------------------------------------------------|
A|-----------------4-4-4-4-4-4-4-4-----------------4-4-4-4-4-4-4-4-|
E|-2-2-2-2-4-4-4-4-----------------2-2-2-2-4-4-4-4-----------------|

G|---------------------------------------------------------------------------|
D|---------------------------------------------------------------------------|
A|-----------------------------------------------------4-4-4-4-4-4-4-4-------|
E|-2-2-2-2-4-4-4-4-6-6-6-6-6-6-4-4-4-4-2-2-2-2-4-4-4-4-----------------/13\--|


[Verse 1]

G|---------------------------------------------------------------------|
D|---------------------------------------------------------------------|
A|-----------------4-4-4-4-4-4-4-4-------------------------------------|
E|-2-2-2-2-4-4-4-4-----------------2-2-2-2-4-4-4-4-6-6-6-6-6-6-4-4-4-4-|

G|------------------------------------------------------|
D|------------------------------------------------------|
A|-----------------4-4-4-4-4-4-4-4----------------------|
E|-2-2-2-2-4-4-4-4-----------------4-4-4-4-4-4-4-4-/13\-|


[Chorus]

G|----------------------------------------------------------------|
D|----------------------------------------------------------------|
A|-----------------4-4-4-4-4-4-4-4-----------------4-4-4-4-4-4-4-4|
E|-2-2-2-2-4-4-4-4-----------------2-2-2-2-4-4-4-4----------------|

G|-------------------------------------|
D|-------------------------------------|
A|-------------------------------------|
E|-2-2-2-2-4-4-4-4-6-6-6-6-6-6-4-4-4-4-|

G|----------------------------------------------------------------------|
D|----------------------------------------------------------------------|
A|-----------------4-4-4-4-4-4-4-4-----------------4-4-4-4-4-4-4-4------|
E|-2-2-2-2-4-4-4-4-----------------2-2-2-2-4-4-4-4-----------------/13\-|


[Interlude]

G|----------------------------------------------------------------|
D|----------------------------------------------------------------|
A|-----------------4-4-4-4-4-4-4-4-----------------4-4-4-4-4-4-4-4|
E|-2-2-2-2-4-4-4-4-----------------2-2-2-2-4-4-4-4----------------|

G|--------------------------------------------------------------------|
D|--------------------------------------------------------------------|
A|-----------------------------------------------------4-4-4-4-4-4-4-4|
E|-2-2-2-2-4-4-4-4-6-6-6-6-6-6-4-4-4-4-2-2-2-2-4-4-4-4----------------|

G|--------------------------------------|
D|--------------------------------------|
A|-----------------4-4-4-4-4-4-4-4------|
E|-2-2-2-2-4-4-4-4-----------------/13\-|


[Verse 2]

G|---------------------------------------------------------------------|
D|---------------------------------------------------------------------|
A|-----------------4-4-4-4-4-4-4-4-------------------------------------|
E|-2-2-2-2-4-4-4-4-----------------2-2-2-2-4-4-4-4-6-6-6-6-6-6-4-4-4-4-|

G|------------------------------------------------------|
D|------------------------------------------------------|
A|-----------------4-4-4-4-4-4-4-4----------------------|
E|-2-2-2-2-4-4-4-4-----------------4-4-4-4-4-4-4-4-/13\-|


[Chorus]

G|----------------------------------------------------------------|
D|----------------------------------------------------------------|
A|-----------------4-4-4-4-4-4-4-4-----------------4-4-4-4-4-4-4-4|
E|-2-2-2-2-4-4-4-4-----------------2-2-2-2-4-4-4-4----------------|

G|-------------------------------------|
D|-------------------------------------|
A|-------------------------------------|
E|-2-2-2-2-4-4-4-4-6-6-6-6-6-6-4-4-4-4-|

G|----------------------------------------------------------------------|
D|----------------------------------------------------------------------|
A|-----------------4-4-4-4-4-4-4-4-----------------4-4-4-4-4-4-4-4------|
E|-2-2-2-2-4-4-4-4-----------------2-2-2-2-4-4-4-4-----------------/13\-|


[Bridge]

G|---------------------------------------------------------------------|
D|---------------------------------------------------------------------|
A|---------------------------------------------------------------------|
E|-1-1-1-1-1-1-1-1-1-1-1-1-1-1-1-1-6-6-6-6-6-6-6-6-6-6-6-6-6-6-4--4--4-|

G|---------------------------------------------------------------------|
D|---------------------------------------------------------------------|
A|---------------------------------------------------------------------|
E|-1-1-1-1-1-1-1-1-1-1-1-1-1-1-1-1-6-6-6-6-6-6-6-6-6-6-6-6-6-6-4--4--4-|

G|---------------------------------------------------------------------------|
D|---------------------------------------------------------------------------|
A|---------------------------------4-4-4-4-3-3-3-3-1-1-1-1-------------------|
E|-2-2-2-2-2-2-2-2-4-4-4-4-4-4-4-4-------------------------4-4-4-4-----------|

G|----------------------------------------------------------|
D|----------------------------------------------------------|
A|----------------------------------------------------------|
E|-1-1-1-1-1-1-1-1-1-1-1-1-1-1-1-1-/13-13-13-13-13-13-13-13-|

G|--------------------------|
D|--------------------------|
A|--------------------------|
E|-13-13-13-13-13-13-13-13\-|


[Chorus]

G|----------------------------------------------------------------|
D|----------------------------------------------------------------|
A|-----------------4-4-4-4-4-4-4-4-----------------4-4-4-4-4-4-4-4|
E|-2-2-2-2-4-4-4-4-----------------2-2-2-2-4-4-4-4----------------|

G|-------------------------------------|
D|-------------------------------------|
A|-------------------------------------|
E|-2-2-2-2-4-4-4-4-6-6-6-6-6-6-4-4-4-4-|

G|---------------------------------|
D|---------------------------------|
A|-----------------4-4-4-4-4-4-4-4-|
E|-2-2-2-2-4-4-4-4-----------------|

G|----------------------------------------------------------------|
D|----------------------------------------------------------------|
A|-----------------4-4-4-4-4-4-4-4-----------------4-4-4-4-4-4-4-4|
E|-2-2-2-2-4-4-4-4-----------------2-2-2-2-4-4-4-4----------------|

G|-------------------------------------|
D|-------------------------------------|
A|-------------------------------------|
E|-2-2-2-2-4-4-4-4-6-6-6-6-6-6-4-4-4-4-|

G|---------------------------------------------------------|
D|---------------------------------------------------------|
A|-------------------------------------------------4-4-4-4-|
E|-2-2-2-2-4-4-4-4-2-2-2-2-4-4-4-4-2-2-2-2-4-4-4-4---------|

            
Submit corrections


        Baby Youre A Haunted House lessons Hard to play? Try these video lessons and learn fast Baby Youre A Haunted House lessons
        
↑ Back to top | Tablatures and chords for acoustic guitar and electric guitar, ukulele, drums are parodies/interpretations of the original songs. You may use it for private study, scholarship, research or language learning purposes only