» » »

George Michael - Killer Bass

Artists:  A B C D E F G H I J K L M N O P Q R S T U V W X Y Z # 

Killer Bass

(ver. 1) Click to play this song!
George Michael
 Rating:
4/5 (4 votes)
                This is very simple riff.

G--------------------------------------|
D--------------------------------------|
A--------------------------------------|
E--77---2---35--00---032---------------|

G--------------------------------------|
D--------------------------------------|
A--------------------------------------|
E--77---2---35--00---032---------------|

G--------------------------------------|
D--------------------------------------|
A--------------------------------------|
E--77---2---35--00---032---------------|

G--------------------------------------|
D--------------------------------------|
A--------------------------------------|
E--77---2---35--00---032---------------|

And thats all i think.

MarcuS.
            
Submit corrections

↑ Back to top | Tablatures and chords for acoustic guitar and electric guitar, ukulele, drums are parodies/interpretations of the original songs. You may use it for private study, scholarship, research or language learning purposes only