Home » G » George Lynch »

George Lynch - Its Not Love Tabs

Artists:  A B C D E F G H I J K L M N O P Q R S T U V W X Y Z # 

Its Not Love Tabs

(ver. 1) Click to play this song!
George Lynch
Words and Music: Dokken

x mute  / slide up
b bend  \ slide down
r release  ^^ tremolo
h hammer on  t Tap on
p pull off  ah art. harm.
~ vibrato  V Trem. Dive


 INTRO:  Play these 2 bars Three Times                                          
|---------------------------------------|-------------------------------------|
|---------------------------------------|-------------------------------------|
|-9-9--9-9--9-9-----8~~--8-8-8-8-8-8--\-|-5-5--5-5--5-5-----5~~-5-5--5-5--5-5-|
|-7-7--7-7--7-7--7--7----7-7-7-7-7-7--\-|-5-5--5-5--5-5--5--4---4-4--4-4--4-4-|
|---------------------------------------|-------------------------------------|
|---------------------------------------|-------------------------------------|
                                                                              

                                                                                
|---------------------------------------|-------------------------------------|
|---------------------------------------|-------------------------------------|
|-9-9--9-9--9-9-----8~~--8-8-8-8-8-8--\-|-5--5--5---5---5---5---------5~~-----|
|-7-7--7-7--7-7--7--7----7-7-7-7-7-7--\-|-5--5--5---5---5---5----5----4-------|
|---------------------------------------|-------------------------------------|
|---------------------------------------|-------------------------------------|
                                                                              

                                                                                
|--------------------------------------|--------------------------------------|
|--------------------------------------|--------------------------------------|
|-----------------------2----------5---|-------7------------------------------|
|-----------------------2----------3---|-------4------------------------------|
|----5-----3------5-\---0---0---0------|-0--0------0--0---0---0---0--0--0--7\-|
|-3-----3------3-----------------------|--------------------------------------|
                                                                              

                                                                                
|---------------------------------------|-------------------------------------|
|---------------------------------------|-------------------------------------|
|-2--------5-------7------7-----7-----7-|-2--------5--------7-----------------|
|-2--------3-------4---5-----4----5-----|-2--------3--------4-----------------|
|-0--0-0------0--0----------------------|-0--0---0----0--0--------------------|
|---------------------------------------|---------------------0-0-0-0-0-0-0-0-|
                                                                              

                                         1st VERSE                                  
|--------------------------------------|--------------------------------------|
|--------------------3-----------------|--------------------------------------|
|-2------------------0---------------2-|-9-9--9-9--9--9-----8~~-8-8-8-8-8-8-\-|
|-2-------2----------0---------------2-|-7-7--7-7--7--7--7--7---7-7-7-7-7-7-\-|
|-0-------2----------2------3-2~-----0-|--------------------------------------|
|----3----0---0---2--3---3-------3-----|--------------------------------------|
                                                                              

                                                                                
|--------------------------------------|--------------------------------------|
|--------------------------------------|--------------------------------------|
|-5-5--5-5--5-5-----5~~--5-5--5-5--5-5-|-9-9--9-9--9--9-----8~~-8-8-8-8-8-8-\-|
|-5-5--5-5--5-5--5--4----4-4--4-4--4-4-|-7-7--7-7--7--7--7--7---7-7-7-7-7-7-\-|
|--------------------------------------|--------------------------------------|
|--------------------------------------|--------------------------------------|
                                                                              

                                                                                
|---------------------------------------|-------------------------------------|
|---------------------------------------|-------------------------------------|
|-5---5---5---5---5---5---------5~~-----|-----------------------2----------5--|
|-5---5---5---5---5---5----5----4-------|-----------------------2----------3--|
|---------------------------------------|----5-----3------5-\---0--0----0-----|
|---------------------------------------|-3-----3------3----------------------|
                                                                              

                                                                                
|-------------------------------------|---------------------------------------|
|-------------------------------------|---------------------------------------|
|-------7-----------------------------|-2--------5-------7------7-----7-----7-|
|-------4-----------------------------|-2--------3-------4---5-----4----5-----|
|-0--0-----0--0---0---0---0--0--0--7\-|-0--0-0------0--0----------------------|
|-------------------------------------|---------------------------------------|
                                                                              

                                                                                
|---------------------------------------|-------------------------------------|
|---------------------------------------|----------------------3--------------|
|-2--------5---------7------------------|-2--------------------0--------------|
|-2--------3---------4------------------|-2--------2-----------0--------------|
|-0--0---0-----0--0---------------------|-0--------2-----------2------3-2~----|
|-----------------------0-0-0-0-0-0-0-0-|-----3----0----0---2--3---3-------3--|
                                                                              

                                                                                
|---------------------------------------|-------------------------------------|
|-----------3---3-----------------------|-----------3---3--------3--------3---|
|--2--------2-p-0--2--------------------|--2--------2-p-0--------0--------2---|
|--2---------------2--------------------|--2---------------------0--------0---|
|--0--0--0---------0------5-----3-----5-|--0--0--0---------------2------------|
|-----------------------3----3-----3----|------------------------3------------|
                                                                              

                                        
|---------------------------------------|-------------------------------------|
|-----------3---3-----------------------|--------3----------3-----------------|
|--2--------2-p-0--2--------------------|--------0----------2-------------2---|
|--2---------------2--------------------|--------0----------0-------------2---|
|--0--0--0---------0------5-----3-----5-|--------2------------------------0---|
|-----------------------3----3-----3----|--------3--------------------3-------|



2nd Verse:  Play these 2 bars twice
|---------------------------------------|-------------------------------------|
|---------------------------------------|-------------------------------------|
|-9-9--9-9--9-9-----8~~--8-8-8-8-8-8--\-|-5-5--5-5--5-5-----5~~-5-5--5-5--5-5-|
|-7-7--7-7--7-7--7--7----7-7-7-7-7-7--\-|-5-5--5-5--5-5--5--4---4-4--4-4--4-4-|
|---------------------------------------|-------------------------------------|
|---------------------------------------|-------------------------------------|
                                                                              

|---------------------------------------|------------------------------------|
|---------------------------------------|------------------------------------|
|-9-9--9-9--9-9-----8~~--8-8-8-8-8-8--\-|-5---5---5---5---5---5--------5~~---|
|-7-7--7-7--7-7--7--7----7-7-7-7-7-7--\-|-5---5---5---5---5---5----5---4-----|
|---------------------------------------|------------------------------------|
|---------------------------------------|------------------------------------|
 

|--------------------------------------|-------------------------------------|
|--------------------------------------|-------------------------------------|
|-----------------------2----------5---|-------7-----------------------------|
|-----------------------2----------3---|-------4-----------------------------|
|----5-----3------5-\---0---0---0------|-0--0------0--0---0---0--0--0--0--7\-|
|-3-----3------3-----------------------|-------------------------------------|
                                                                              


|---------------------------------------|------------------------------------|
|---------------------------------------|------------------------------------|
|-2--------5-------7------7-----7-----7-|-2--------5------7------------------|
|-2--------3-------4---5-----4----5-----|-2--------3------4------------------|
|-0--0--0------0--0---------------------|-0--0--0----0--0----0-0-0-0-0-0-0-0-|
|---------------------------------------|------------------------------------|
                                          


|-------------------------------------|-------------------------------------|
|----------------------3--------------|-----------3---3---------------------|
|-2--------------------0--------------|--2--------2-p-0--2------------------|
|-2--------2-----------0--------------|--2---------------2------------------|
|-0--------2-----------2------3-2~----|--0--0--0---------0-----5-----3----5-|
|-----3----0----0---2--3---3-------3--|----------------------3----3-----3---|
                                                                              

                                                                                
|-------------------------------------|-------------------------------------|
|-----------3---3--------3--------3---|-----------3---3---------------------|
|--2--------2-p-0--------0--------2---|--2--------2-p-0--2------------------|
|--2---------------------0--------0---|--2---------------2------------------|
|--0--0--0---------------2------------|--0--0--0---------0-----5-----3----5-|
|------------------------3------------|----------------------3----3-----3---|


|-------------------------------------|-------------------------------------|
|-----------3---3--------3------------|---------3---------------------------|
|--2--------2-p-0--------0-------2----|---------2--------------2----2-------|
|--2---------------------0-------2----|--0-0-0--0--0-----------2----2-------|
|--0--0--0---------------2-------0----|---------------3--0--3--0----0-------|
|------------------------3------------|-------------------------------------|

                                                                              

                                                                               
|-------------------------------------|-------------------------------------|
|---------3------------3--------------|---------3----------------------3----|
|---------2------------0-------2------|---------2--------------2---2---0----|
|--0-0-0--0---3---0----0-------2------|--0-0-0--0--0-----------2---2---0----|
|----------------------2-------0------|---------------3--0--3--0---0---2----|
|----------------------3--------------|--------------------------------3----| 

GUITAR SOLO BEGINS


 SOLO:                                                                          
|-----------------------------------|-17--15-17-17-17-------------------------|
|--V--------------------------------|--b---ah-ah------20-17-------------------|
|--0---9-x-x-7-x-7~-----------------|----------------------20-19-17-19-19-17~-|
|--------------------7--5-7-/--9--7-|-----------------------------------------|
|-----------------------------------|-----------------------------------------|
|-----------------------------------|-----------------------------------------|
                                                                              

                                                                                
|-----------------------------------|-15-17-13-17-12---17---------------------|
|--------------------------8---7~~~-|---------------15---13-12-13-12-13-12----|
|-9-x-x-7-x-7~---9--7--9------------|--------------------------------------14-|
|-----------------------------------|-----------------------------------------|
|-----------------------------------|-----------------------------------------|
|-----------------------------------|-----------------------------------------|
                                                                              

                                                                                
|---------------------------------------|-------------------------------------|
|-------h------t-p---p------------h-----|--t---p-----p------------------------|
|-9-/-10-14---17--14--10-\-9-/-10--12---|-16-----12-----10-\-9-/-10-\-9-------|
|---------------------------------------|-------------------------------------|
|---------------------------------------|-------------------------------------|
|---------------------------------------|-------------------------------------|
                                                                              

                                                                                
|---------------------------------------|------------------------------------|
|---------------------------------------|------------------------------------|
|-------h------t-p---p------------h-----|---t--p----p------------------------|
|-9-/-10--14--17--14--10-\-9-/-10---12--|--16----12---10-\-9-/-10-\-9--------|
|---------------------------------------|-----------------------------12~~~--|
|---------------------------------------|------------------------------------|
            
Submit corrections

↑ Back to top | Tablatures and chords for acoustic guitar and electric guitar, ukulele, drums are parodies/interpretations of the original songs. You may use it for private study, scholarship, research or language learning purposes only