Home » G » George Lynch »

George Lynch - In My Dreams Tabs

Artists:  A B C D E F G H I J K L M N O P Q R S T U V W X Y Z # 

In My Dreams Tabs

(ver. 1) Click to play this song!
George Lynch
Legend
------

 h  = hammer-on
 p  = pull-off
 b  = bend
 r  = bend release
 /  = slide up/down
<5> = natural harmonic
[5] = artifical harmonic
 ~  = vibrato
 tr = trill





E-------------|---------------|---------------|-----------|----------------
B-------------|---------------|---------------|-----------|----------------
G-----------9-|--9----------7-|--7----------5-|----7----9-|--9-----------9-
D-----------9-|--9----------7-|--7----------5-|----7----9-|--9-----------9-
A-------5-7-7-|--7------5-7-5-|--5------5-7-3-|--0-5--0-7-|--7-------5-7-7-
E---5/7-------|-----5/7-------|-----5/7-------|-----------|----0-5/7-------



         with Fill 1

E-|--------------------|------------------|--------------|-----------||----
B-|--------------------|------------------|--------------|-----------||*---
G-|------9-----------7-|--7-------------5-|--5----7------|-----------||----
D-|------9-----------7-|--7-------------5-|--5----7----5-|--7-7------||--0h
A-|------7-------5-7-5-|--5---------5-7-3-|--3--0-5--0-5-|--7-7------||*-0h
E-|--------0-5/7-------|------0-5/7-------|------------3-|--5-5------||----





E|----------------|---------------|---------------|-----------|-------------
B|----------------|---------------|---------------|-----------|-------------
G|----------------|---------------|-------------5-|-9---7-7---|-------------
D|--2-2---------0h|-2-2---------0h|-2-2---------5-|-9---7-7-0h|-2-2---------
A|--2-2---------0h|-2-2---------0h|-2-2---------3-|-7---5-5-0h|-2-2---------
E|------0-0-0-0---|-----0-0-0-0---|-----0-0-0-0---|-----------|-----0-0-0-0-





E|---|---------------|---------------|----------|--------------------|------
B|---|---------------|---------------|----------|--------------------|------
G|---|---------------|-------------5-|----7-7---|----------------7-7-|--7-7-
D|-0h|-2-2---------0h|-2-2---------5-|-5--7-7---|-9h10-9--7-7-7--7-7-|--7-7-
A|-0h|-2-2---------0h|-2-2---------3-|-5--5-5---|-7----7--7-7-7--5-5-|--5-5-
E|---|-----0-0-0-0---|-----0-0-0-0---|-3--------|--------------------|------





E|------------|------------------|----------------|------------------|-----
B|------------|----------------8-|----------------|----------------8-|-----
G|--2-2-2-2---|----------------7-|-7-7-7--2-2-2-2-|----------------7-|-7-7-
D|--2-2-2-2---|-9h10-9--7-7-7--7-|-7-7-7--2-2-2-2-|-9h10-9---7-7-7-7-|-7-7-
A|--4-4-4-4-0-|-7----7--7-7-7--5-|-5-5-5--4-4-4-4-|-7----7---7-7-7-5-|-5-5-
E|------------|------------------|----------------|--------0---------|-----





E|------------|-----------------|-------------|-----------|---------------|-
B|----------7-|-----------------|-------------|-----------|---------------|-
G|-7--2-2-2-7-|-----7-7-------2-|--------2----|------5----|-4-------------|-
D|-7--2-2-2-7-|-----7-7-------2-|--------2----|-2----5----|-4----2--------|-
A|-5--4-4-4-5-|-----5-5-0-3b4-0-|--------0----|-2----3----|-2----2--------|-
E|------------|-----------------|------3---3~-|-0---------|------0--0-0-0-|-



                                                            1.

E|-----------|--------------|-----------|--------------|---------------|---
B|-----------|--------------|-----------|--------------|---------------|---
G|------5----|-4------------|------5----|-4------------|-------5-----7-|---
D|-2----5----|-4----2-------|-2----5----|-4----2-------|--2----5-----7-|---
A|-2----3----|-2----2-------|-2----3----|-2----2-------|--2----3--0--5-|---
E|-0---------|------0-0-0-0-|-0---------|------0-0-0-0-|--0------------|---





E|---------|--------------|--------------|--------------|------------|------
B|---------|--------------|--------------|--------------|------------|------
G|-------5-|------7-----9-|--9---------7-|--7---------5-|-----7----9-|--9---
D|-------5-|------7-----9-|--9---------7-|--7---------5-|-----7----9-|--9---
A|-----0-3-|----0-5---0-7-|--7-----5-7-5-|--5-----5-7-3-|---0-5--0-7-|--7---
E|---------|--------------|----5/7-------|----5/7-------|------------|----5/



                 2.                SOLO

E|----------||-----------|--------|---------------|------------------|-----
B|---------*||-----------|--------|---------------|------------------|-----
G|----------||----5----7-|--------|-2b4--2/5~-----|-{7}---{9}-9~---5/|--9--
D|-------0--||-2--5----7-|--------|---------------|----------------5/|--9--
A|---5-7-0-*||-2--3--0-5-|--------|---------------|------------------|-----
E|-7--------||-0---------|--------|---------------|------------------|-----





E|--------------------------|--------------------------------|--------------
B|--------------------------|-8------7-----------------------|-10---12---13-
G|-12-----12-----{11}~------|---9~-----8---8-{9}~--(9)\p-4/9-|----9----9----
D|----9-9----9-9--------7/9-|------9-----9-------------------|--------------
A|--------------------------|--------------------------------|--------------
E|--------------------------|--------------------------------|--------------





E|----------------------------|--------------------------------------------
B|---10---12---13p10-10-10-12-|---10h11-10-8---10---8h10-11-10-8-10--------
G|-9----9----9----------------|--------------9----9-----------------{9}~---
D|----------------------------|--------------------------------------------
A|----------------------------|--------------------------------------------
E|----------------------------|--------------------------------------------





E|-----|------------------------------|-------------------------|--------12h
B|-----|----------12h13---------------|---------------------/12-|-----------
G|-(9)\|-/14b2----------14b16----{14}~|--(14)-------(14)\-------|-----------
D|-----|------------------------------|-------------------------|-----------
A|-----|------------------------------|-------------------------|-----------
E|-----|------------------------------|-------------------------|-----------





E|-15-12-19p12-15-12-19p12-15-12-19p12-15-12-19p12-15-12-|-12h15-12-20p12-15-
B|-------------------------------------------------------|-------------------
G|-------------------------------------------------------|-------------------
D|-------------------------------------------------------|-------------------
A|-------------------------------------------------------|-------------------
E|-------------------------------------------------------|-------------------





E|-12-20p12-15-12-20p12-15-12-20p12-15-12-|--------12h15-12-19p12-15-12-19p
B|----------------------------------------|--------------------------------
G|----------------------------------------|--------------------------------
D|----------------------------------------|--------------------------------
A|----------------------------------------|--------------------------------
E|----------------------------------------|--------------------------------





E|-12-15-12-19p12-15-12-19p12-15-12-|-/20-20-20p19-17-------------------16-
B|----------------------------------|-----------------19-20p19-17----------
G|----------------------------------|-----------------------------19-17----
D|----------------------------------|--------------------------------------
A|----------------------------------|--------------------------------------
E|----------------------------------|--------------------------------------





E|----------------------------------|---------------------------------|------
B|-20p19-17-------------------------|--------------------------20-----|-(20)-
G|----------19-17-19p16-17-16-------|-----/13-9/13-------------20-----|-(20)-
D|----------------------------19\14-|--------------14p12-----0--------|------
A|----------------------------------|--------------------14-----------|------
E|----------------------------------|---------------------------------|------





E|--------------------------|--------------------|---------------------|---
B|----(20)b22--r------/17b2-|-(17)---------------|---------------------|---
G|----(20)b22--r------------|---------16p15-14~--|--(14)-------------9-|---
D|--------------------------|--------------------|-------------------9-|---
A|--------------------------|--------------------|---------------5-7-7-|---
E|--------------------------|--------------------|-----------5/7-------|---



                                                                          with Fill 1

E------------------|---------------------|---------------|------------------
B------------------|---------------------|---------------|------------------
G--9-------------7-|-----7-------------5-|------7------9-|--9-------------9-
D--9-------------7-|-----7-------------5-|------7------9-|--9-------------9-
A--7---------5-7-5-|-----5---------5-7-3-|--0-0-5--0-0-7-|--7---------5-7-7-
E----0-0-5/7-------|-------0-0-5/7-------|---------------|----0-0-5/7-------





E-|----------------------|------------------|---------------|------------|-
B-|----------------------|------------------|---------------|------------|-
G-|------9-------------7-|--7-------------5-|------7--------|------------|-
D-|------9-------------7-|--7-------------5-|------7------5-|--7-7-------|-
A-|------7---------5-7-5-|--5---------5-7-3-|--0-0-5--0-0-5-|--7-7-------|-
E-|--------0-0-5/7-------|----0-0-5/7-------|-------------3-|--5-5-------|-



                                       In my dreams, it's still the same Your love is strong, it still remains...

E|--------------------|-----------|---------|---------|---------|------------
B|--------------------|-----------|---------|---------|---------|------------
G|--------------5---7-|-----------|---------|---------|---------|------------
D|----------2---5---7-|-----7-----|---------|---------|---------|------------
A|----------2---3---5-|-----7-----|---------|---------|---------|------------
E|----------0---------|-----5-----|---------|---------|---------|---------12\





E|--|-----------|--------------|-----------|-----------|-------------|-----
B|--|-----------|--------------|-----------|-----------|-------------|-----
G|--|------5----|-4------------|------5----|-7----2----|--------5----|-4---
D|--|-2----5----|-4----2-------|-2----5----|-7----2----|---2----5----|-4---
A|--|-2----3----|-2----2-------|-2----3----|-5----0----|---2----3----|-2---
E|--|-0---------|------0-0-0-0-|-0---------|-----------|---0---------|-----





E|----------|-----------|--------------|-----------|----------------|------
B|----------|-----------|--------------|-----------|----------------|------
G|----------|------5----|-4------------|------5----|---4------------|------
D|--2-------|-2----5----|-4----2-------|-2----5----|---4----2-------|-2----
A|--2-------|-2----3----|-2----2-------|-2----3----|---2----2-------|-2----
E|--0-0-0-0-|-0---------|------0-0-0-0-|-0---------|--------0-0-0-0-|-0----





E|------|-----------|-------------|--------------|-----------|--------------
B|------|-----------|-------------|--------------|-----------|--------------
G|-5----|-7----2----|--------5----|-4------------|------5----|-4------------
D|-5----|-7----2----|---2----5----|-4----2-------|-2----5----|-4----2-------
A|-3----|-5----0----|---2----3----|-2----2-------|-2----3----|-2----2-------
E|------|-----------|---0---------|------0-0-0-0-|-0---------|------0-0-0-0-





E-|-----------|--------------|-----------|-------------|-----------|--------
B-|-----------|--------------|-----------|-------------|-----------|--------
G-|------5----|-4------------|------5----|---7----2----|------5----|-4------
D-|-2----5----|-4----2-------|-2----5----|---7----2----|-2----5----|-4----2-
A-|-2----3----|-2----2-------|-2----3----|---5----0----|-2----3----|-2----2-
E-|-0---------|------0-0-0-0-|-0---------|-------------|-0---------|------0-





E|-------|-----------|----------------|-----------|--------------|---------
B|-------|-----------|----------------|-----------|--------------|---------
G|-------|------5----|---4------------|------5----|-4------------|------5--
D|-------|-2----5----|---4----2-------|-2----5----|-4----2-------|-2----5--
A|-------|-2----3----|---2----2-------|-2----3----|-2----2-------|-2----3--
E|-0-0-0-|-0---------|--------0-0-0-0-|-0---------|------0-0-0-0-|-0-------



                                                Fill 1.

E|---|-----------|-----------|----------------|----0-----0--------0-----0---
B|---|-----------|-----------|----------------|------5-----5--------3-----3-
G|---|-7----2----|------5----|---4------------|-4------4-----4-2------2-----
D|---|-7----2----|-2----5----|---4----2-------|-----------------------------
A|---|-5----0----|-2----3----|---2----2-------|-----------------------------
E|---|-----------|-0---------|--------0-0-0-0-|-----------------------------





E|---|-
B|---|-
G|-2-|-
D|---|-
A|---|-
E|---|-
            
Submit corrections

↑ Back to top | Tablatures and chords for acoustic guitar and electric guitar, ukulele, drums are parodies/interpretations of the original songs. You may use it for private study, scholarship, research or language learning purposes only