Home » G » George Lynch »

George Lynch - Dream Warriors Tabs

Artists:  A B C D E F G H I J K L M N O P Q R S T U V W X Y Z # 

Dream Warriors Tabs

(ver. 1) Click to play this song!
George Lynch
Words and Music: Dokken
                                
x mute  / slide up
b bend  \ slide down
r release  ^^ tremolo
h hammer on  t Tap on
p pull off  ah art. harm.
~ vibrato  V Trem. Dive

                   p  h  p               p  h  p  Note that these parts are dubbed
|-----------------------------------------------------------------------------12/20-|
|-13-(15)-(17)-13--10-13-10-12-(13)--12--10-12-10---10-------------------13/15------|
|-------------------------------------------------12---12-(14)--12~--12/19----------|
|-----------------------------------------------------------------------------------|
|-----------------------------------------------------------------------------------|
|-----------------------------------------------------------------------------------|



                                              p  h            A.H
|------------------------------------------------------------------------------|
|--15/18-15(17)/20(22)--13/18--15/19~--13/17-18-17-18-15-------20-(22)---------|
|--------------------------------------------14-12-14-12-----------------------|
|------------------------------------------------------------------------------|
|------------------------------------------------------------------------------|
|------------------------------------------------------------------------------|


                      p  h  p                                h  p
|--------19-(21)--19--17-19-17\15/17--15----------------------------------------|
|---17-17-------------------------------17-16-15---15/17--17-18-17--------------|
|------------------------------------------------17-----19----------------------|
|-------------------------------------------------------------------------------|
|-------------------------------------------------------------------------------|
|-------------------------------------------------------------------------------|


      p      h  p            h  p
|-----------------------------------------------------------------------------------|
|-18-17--17-18-17-18--17------------------22(24)---22-17-20-17-20-20--17------------|
|------19-----------19--19------------------------------------------20--20-19-17-19-|
|-------------------------16-19-16-19(21)-17----------------------------------------|
|-----------------------------------------------------------------------------------|
|-----------------------------------------------------------------------------------|


A.H.
|---------------------------------------------------------------17-19-17/20-19/22-|
|------------------------------------------------------------------17-18----------|
|-19-17-18-19-17-17------------------17--19-17--19-17--19-/21-19------------------|
|------------------19-19-19--17-19-17--------17------17---------------------------|
|---------------------------------------------------------------------------------|
|---------------------------------------------------------------------------------|


A.H.
|-17/20-19/22-17-17/20-17/20-17----17--------22(24)-------------------------------|
|-------------18-------------18-18-18-17-18--22--------15--17--15-----------------|
|-------------------------------19----17-19-----------------------17--16--14--14--|
|---------------------------------------------------------------------------------|
|---------------------------------------------------------------------------------|
|---------------------------------------------------------------------------------|


                                                          A.H.
|----------------------------17--\15----------------16---16--(18)-----------------|
|-------------17--15-----------------15-------------------------------------------|
|--16--17--17--------17--16-------------------------------------------------------|
|---------------------------------------------------------------------------------|
|---------------------------------------------------------------------------------|
|---------------------------------------------------------------------------------|



  T    h   T p            T p     T                     T p  p  p
|-15-10-12-15-13-12-10-13----------------------------------------------|
|------------------------15-10-12-15-13-12-10--------------------------|
|--------------------------------------------12-9-10-12-14-12-10-9-----|
|----------------------------------------------------------------------|
|----------------------------------------------------------------------|
|----------------------------------------------------------------------|



      T p h h  h  p  p  p   h  p  h   h      h  h T p p p    p
|----------------------------------------------------------------------|
|----------------------------------------------------------------------|
|----------------------------------------------------------------------|
|-12-14-9-10-12-14-12-10-9---------------------------------------------|
|-------------------------12-14-10-------8-10-12-14-12-10-8------------|
|---------------------------------8-10-12------------------12-10-------|



 Sweet Revenge etc.
|-----------------------------------------------------------------------------|
|--------------------------------------------------------------------3--------|
|-2---------------------2--------------------------------------------0--------|
|-3---------------------3--------------------------------------------0--------|
|-3-------2--------3----3-------2-------3-----3------2-------3-------x--------|
|-1--1--1----1--1---1--1--1--1----1--1----1----3--3----3--3----0--1--3---10\--|
            
Submit corrections

↑ Back to top | Tablatures and chords for acoustic guitar and electric guitar, ukulele, drums are parodies/interpretations of the original songs. You may use it for private study, scholarship, research or language learning purposes only