Home » G » George Lynch »

George Lynch - Alone Again Tabs

Artists:  A B C D E F G H I J K L M N O P Q R S T U V W X Y Z # 

Alone Again Tabs

(ver. 1) Click to play this song!
George Lynch
Alone again - Dokken  - transribed by Gary Chapman

Intro - repeat a few times.  This is also the verse.

   E minor add 9      C             D  (alternately D add2 if you play the
E -----0------------------------------(0)--------------  part in brackets)
B --------0---------------1------------3-(3)-----------
G -----------0---------------0------------2-(2)--------
D --------------4---------------2----0-------0---4^5^4-
A ------------------0-2-3------------------------------
E --0--------------------------------------------------

Intro:  Emadd9, C, D (x 3)
        Emadd9, C, G, D

Verse 1:
--------

Emadd9                     C       D
I'd like to see you in the morning light.

Emadd9                     C        G   D
I like to feel you when it comes to night.

Emadd9                C   D
Now I'm here, and I'm all alone.

C       D           B   B???(x222xx)   B
Still I know how it feels    EADGBE.

C    D
I'm alone again.

Chorus:
-------
 
Em                G        D
Tried so hard, to make you see.

Em                      G   D   A
But I couldn't find the words.

Em                  G         D 
Now the tears, they fall like rain,

C          D            Em
I'm alone again without you.

C      D            Em
Alone again without you.

C      D            Em  (B/B??? on chorus preceding the solo) 
Alone again without you.

C      D             Em add 9 , etc. leading into second verse (not included)
Alone again, without you...

---

Guitar Solo:
 
~~~~~~~~~~~                    1  R                      ~~~~~~~~~~~
---------------------------|---------------------------|------------------P------
---------------------------|---------------------------|---------------7-8-7-----
---------------------------|-----------H-P-sl--------7-|9-------9---/9------9-7--
--------------------P------|--7^-(7)--5-7-5/4-5----9---|-------------------------
-7--7-7--7---\7-9-10-9-----|-------------------5-5-----|-------------------------
----------------------10-7-|8--------------------------|-------------------------

 
 
  ~~~~~~~~  1      1                  1      R     1/2  ~~~~~        1/2
----------------------10----------|---------------------------------14^---(14)---
----------10^-----10^----10-----15|-15^-------(15)-(15)^-------------------------
----------------------------------|----------------------------------------------
-10-------------------------------|----------------------------------------------
----------------------------------|----------------------------------------------
----------------------------------|----------------------------------------------
 
 
   H  P           1          1           R   ~~~~~~~         P  P     ~~~~~~~~
-12-14-12-------17^------X-22^--|--(22)---\22-------/17-19-20-19-17-19-----------
---------13---------------------|------------------------------------------------
--------------------------------|------------------------------------------------
--------------------------------|------------------------------------------------
--------------------------------|------------------------------------------------
--------------------------------|------------------------------------------------
 
 
                1    ~~~~
---17--------------------------|--------H--P--sl-------H--P--sl-------H--P--sl---
/19--20-19-17------------------|15-17-15-17-15\13-15-13-15-13\12-13-12-13-12\10--
--------------19^--19----/14-16|-------------------------------------------------
-------------------------------|-------------------------------------------------
-------------------------------|-------------------------------------------------
-------------------------------|-------------------------------------------------
 
 
                              END SOLO
-----H--P--sl-----H--P-sl-|sl----------------------------------------------------|
12-10-12-10\8-10-8-10-8\7-|\5----------------------------------------------------|
--------------------------|------------------------------------------------------|
--------------------------|------------------------------------------------------|
--------------------------|------------------------------------------------------|
--------------------------|------------------------------------------------------|



B1=Bend up one full step 
B1/2=Bend up one half step 
sl=slide
            
Submit corrections

↑ Back to top | Tablatures and chords for acoustic guitar and electric guitar, ukulele, drums are parodies/interpretations of the original songs. You may use it for private study, scholarship, research or language learning purposes only