» » »

George Jones - The One I Loved Back Then Tabs

Artists:  A B C D E F G H I J K L M N O P Q R S T U V W X Y Z # 

The One I Loved Back Then Tabs

(ver. 1) Click to play this song!
George Jones
 Rating:
4/5 (4 votes)

 The One I Loved Back Then lessons Tabs too difficult? Try these video lessons and learn fast
 
                Drop D Tuning

This is how I play this solo.


-----------------------------------------------------------
-----------------------------------------------------------
-----------------------------------------------------------
-------------------------------------------0---------------
------------------------------------0--0h2---2-------------
--0--3b4r3-3b4r3-3b4r3----0-0-0-0/4------------------------


-----------------------------------------------------------
-------------------------9pb11-9pb11r9--7------------------
--------------------7--------------------------------------
---------7-----7/9----9------------------------------------
----0/9----9-----------------------------------------------
-----------------------------------------------------------

-----------------------------------------------------------
-----------------------------------------------------------
----7--7h9--7----------------------------------------------
----------------9--7/0----0----2b3r2b3r2--0----------------
------------------------0----------------------------------
-----------------------------------------------------------

-----------------------------------------------------------
-----------------------------------------------------------
-----------------------------------------------------------
-------0---------------------------------------------------
---0h2---2-------------------------------------------------
-------------3b4--0----------------------------------------
            
Submit corrections


        The One I Loved Back Then lessons Hard to play? Try these video lessons and learn fast The One I Loved Back Then lessons
        
↑ Back to top | Tablatures and chords for acoustic guitar and electric guitar, ukulele, drums are parodies/interpretations of the original songs. You may use it for private study, scholarship, research or language learning purposes only