» » »

George Jones - Choices Tabs

Artists:  A B C D E F G H I J K L M N O P Q R S T U V W X Y Z # 

Choices Tabs

(ver. 2) Click to play this song!
George Jones
 Rating:
4/5 (4 votes)

 Choices lessons Tabs too difficult? Try these video lessons and learn fast
 
                Key:

h: Hammer	p:  Pull Off	/:  Slide	b: Bend

br: Bend and release	~~~:  Vibrato	x: Muted string

bh: Bend and Hold	rb:  Release Bend	pm:  Palm Mute
*******************************************************************

Intro:

   D                        G                           D         G
E------2------2-----------------3-------3-----------------------2h3
B---------3-------3---3-------------0-------0---------------3------
G----2------2-----2---------------------------------------2---3----
D--0----0------0---0----------0-------------------------0----------
A-------------------------------------2---------0-2-4--------------
E-----------------------0-2-3-----3-------3---3--------------------

      D               A               D
E-----2-------0---------------0-----------------0h2----------------
B-------3-------3---3-2---2-------2-------3---3-------3---3--------
G---2-------2-----2---2-----------------2---2-------------2--------
D-0-------0-------------0-------0-----0-------------0---0----------
A---------------------0-----0--------------------------------------
E------------------------------------------------------------------

Chorus:

  D                            G         D
E-----------2p0----------------3---------------0-------0h2---------
B-----3---3--------3---3-------0---0---------3-----3----------3---3
G---2---2----------2-----------------------2-----2---2--------2----
D-0--------------0---0-------------------0-------------0----0---0--
A--------------------------------2---2-4---------------------------
E------------------------0-2-3-------------------------------------

                         Em          A              D
E-----------2p0----------------0----------------0-------------0h2--
B-----3---3-------3---3----0-------0---2------2---0-----3---3------
G---2---2---------2--------0-----------2----2---------2---2--------
D-0-------------0---0--------2----------------------0--------------
A------------------------2-------2---0----0------------------------
E------------------------------------------------------------------

              G                           D         G    D 
E-----------------3-------3-----------------------2h3----2-------0-
B---3---3-------------0-------0---------------3------------3-------
G---2---------------------------------------2---3------2-------2---
D-0---0---------0-------------------------0----------0-------0-----
A-----------------------2---------0-2-4----------------------------
E---------0-2-3-----3-------3---3----------------------------------

        A               D
E---------------0-----------------2p0------------------------------
B-3---3-2---2-------2-------3---3-------3---3----------------------
G---2---2-----------------2---2-------------2----------------------
D---------0-------0-----0-------------0---0------------------------
A-------0-----0----------------------------------------------------
E------------------------------------------------------------------

1st Verse:

  A                       G           D             A
E---------0-----------0-----3-----------------2-----------0--------
B---2-------2---2-------2---0-----------3-------3---2-------2---2--
G---2---2-------2---2-------------------2---2-------2---2-------2--
D-----0-----------0-----------------0-0---0-----------0-----------0
A-0-----------0---------------0h2-4---------------0-----------0----
E-------------------------3----------------------------------------

        G           D                                   GaddC
E---0-----3-----------------2-----------0h2---------2-------3------
B-----2---0-----------3-------3---3-----------3-------3-----3---3--
G-2-------------------2---2-------2---2-------2---2-------0-----0--
D-----------------0-0---0-------0---0-------0---0-------------0----
A-----------0h2-4--------------------------------------------------
E-------3-----------------------------------------------3---------3

          D         G    D                A         D
E---3-------------2h3----2-------0----------------0---2-------2----
B---3---3-----3------------3--------3---3-2---2-------3---3---3---3
G-0-----0---2---3------2-------2------2---2---------------2-------2
D-----0---0----------0-------0--------------0-------0-------0------
A-----------------------------------------0-----0-------0-------0--
E------------------------------------------------------------------

Chorus:

Repeat previous chorus

Instrumental Break:

I just played the intro during the break and it sounded fine

Verse:

Repeat first verse

Chorus:

Repeat previous Chorus

Break:

   D                        G                           
E------2------2-----------------3-------3--------------------------
B---------3-------3---3-------------0-------0----------------------
G----2------2-----2------------------------------------------------
D--0----0------0---0----------0------------------------------------
A-------------------------------------2---------0-2-4--------------
E-----------------------0-2-3-----3-------3---3--------------------

Outro:
  D         G    D                A              D
E---------2h3----2-------0-----------------------2-----------------
B-----3------------3--------3--------------------3-----------------
G---2---3------2-------2------4p2----------------2-----------------
D-0----------0-------0---------------------------0-----------------
A---------------------------------0--------------0-----------------
E------------------------------------------------------------------


Here are some of the licks you hear during the last chorus.  I'll 
mark them with the approximate time they appear in the song. 

 ..choices (approx 2:27)
E------------------------------------------------------------------
B------------------------------------------------------------------
G------------------------------------------------------------------
D----------4br-2-0---2/4~~-----------------------------------------
A--------0---------0-----------------------------------------------
E------------------------------------------------------------------

..Voices (approx 2:33)   ..told me right from wrong (approx 2:36)
      ---LET  RING--- *     ---------LET RING----------
E-----------------------------------------------------5------------
B------------------------------5----------------------5------------
G-----------------------------4-----------------0-2/4--------------
D-0pm-----0-----0-----0-----2--------------------------------------
A-----0h2---2p0---2p0----------------------------------------------
E------------------------------------------------------------------

*  Thie lead is actually in drop D tuning (DADGBE) on the album, but 
   you can similate this without the alternate tuning by hitting the 
   open D instead.  The only difference is the last note of the riff
   is one octave higher. 

 ..listened (approx 2:40)
E----------------7-----5-------------------------------------------
B---------5/7~~----7pm---5pbr-3~~~~--------------------------------
G------------------------------------------------------------------
D------------------------------------------------------------------
A------------------------------------------------------------------
E------------------------------------------------------------------

 ..today (approx 2:45)
E----2-----0-------------------------------------------------------
B----3-----3----------3~~------------------------------------------
G------2p0------0--------------------------------------------------
D-----------2p0---2/4----------------------------------------------
A------------------------------------------------------------------
E------------------------------------------------------------------

..Dying (approx 2:49)   ...made (approx 2:52)  ..(approx 2:55)
      -LET  RING-                                       Rake
E-
            
Submit corrections


        Choices lessons Hard to play? Try these video lessons and learn fast Choices lessons
        
↑ Back to top | Tablatures and chords for acoustic guitar and electric guitar, ukulele, drums are parodies/interpretations of the original songs. You may use it for private study, scholarship, research or language learning purposes only