» » »

George Ezra - Leaving It Up To You Tabs

Artists:  A B C D E F G H I J K L M N O P Q R S T U V W X Y Z # 

Leaving It Up To You Tabs

(ver. 1) Click to play this song!
George Ezra
 Rating:
4/5 (4 votes)

 Leaving It Up To You  lessons Tabs too difficult? Try these video lessons and learn fast
 
                Tuning: C F A# G B E 

e |---------------------------------------------------------------------------|
B |---------------------------------------------------------------------------|
G |---------------------------------------------------------------------------|
A#|-----------6---------------6---------------6-------------4-----------------|
F |-------7-------7-7------7------7-7------7----7-7------0-----0-0------------|
C |------0-0-------0------0-0------0------7-7----7------5-5-----5-------------|

e |---------------------------------------------------------------------------|
B |---------------------------------------------------------------------------| Chorus
G |---------------------------------------------------------------------------|
A#|---------------------6--------------------------6--------------------------|
F |---0-0-----7-7----7----7-7-----0-0-----7-7----7----7-7-----0-0-0-----------|
C |--5-5-----7-7----0-0----0-----5-5-----7-7----0-0----0-----5-5-5-5-------7--|


e |---------------------------------------------------------------------------|
B |---------------------------------------------------------------------------|
G |---------------------------------------------------------------------------|
A#|-----------6---------------6---------------6-------------4-----------------|
F |-------7-------7-7------7------7-7------7----7-7------0-----0-0------------|
C |------0-0-------0------0-0------0------7-7----7------5-5-----5-------------|

e |----------------------------------------------------------------------------------------|
B |----------------------------------------------------------------------------------------|
G |----------------------------------------------------------------------------------------|
A#|-----------6---------------6---------------------------------------6\7--6------6\7--6---| Then restart
F |-------7-------7-7------7------7-7----7-7---7-----9--9----9------7-----7-----7-----7----|
C |------0-0-------0------0-0------0----9-9---9-9--11-11---11-11---0-0---------0-0---------|            
Submit corrections


        Leaving It Up To You  lessons Hard to play? Try these video lessons and learn fast Leaving It Up To You  lessons
        
↑ Back to top | Tablatures and chords for acoustic guitar and electric guitar, ukulele, drums are parodies/interpretations of the original songs. You may use it for private study, scholarship, research or language learning purposes only