Home » G » George Canyon »

George Canyon - One Good Friend Tabs

Artists:  A B C D E F G H I J K L M N O P Q R S T U V W X Y Z # 

One Good Friend Tabs

(ver. 1) Click to play this song!
George Canyon
Intro-    (Dmadd9) (D)
 
 Dmadd9	  	          D 	  	   A 	  	  A
-------0----------------------2----------------0----------------0--
-------3----------------------3----------------2----------------2--
----2----------------2-----2-----------2----2----------2----2----
-0---------------------0-----------------2----------------2------
-x---------------------x-----------------x----------------x------
-x---------------------x-----------------x----------------x------
Well my daddy used to tell me, Any man can be a king.

          C 	  	    C 	      Bm 	  	 Bm
-------x---------------------x---------------x-------------------x--
-------1---------------------1---------------2-------------------2--
-------0---------------------0---------------3---------3---------3--
-2---2-------------2----0h2-----------2----4-------------4----4-----
---3------------------3-----------------4------------------4--------
---x------------------x-----------------x------------------x--------
It ant that complicated, It’s a very simple thing.
 	  	 
        Bb 	  	 Bb
--------x------------------x--
--------1------------------1--
--------1------------------1--
-4---3------------3-----3----
---3------------------3-------
---x------------------x-------
You don’t need no Castle,

      D 	  	  A 	  	    Bm

------2--------------------0-----------------2--
------3--------------------2-----------------2--
------2--------------------2-----------------3--
------0--------------------2-----------------4--
------x--------------------x-----------------4--
------x--------------------x-----------------x--
Or thrown for sitting in.

     Bb 	  	  A 	  	    D

-----1---------------------0-----------------2--
-----1---------------------2-----------------3--
-----1---------------------2-----------------2--
-----3---------------------2-----------------0--
-----3---------------------x-----------------x--
-----x---------------------x-----------------x--

All you need is one good friend.


   
If you find yourself somebody, 
Who would meet you at a stump.    
On a rainy Sunday morning,            
Before the sun is even up.          
Who will stand right there beside you,                       
Fight any fight you're in. 
Then you've got one good friend.

 	 (bridge) (G) (D) - (Em) (C), (G) (D)- (Em) (A7)
 	 There ain't nothing wrong 
 	 With all those rowdy boys I run with
 	 The ones that I go drink with after work                     
 	 Lately it's been hittin' me,     
 	 When my heart's in trouble.
 	 You're the one that always shows up first.

          
You're a pleasure as a lover, 
You're a treasure as a wife.
I don't have to wonder,
Who I can count on in this life.
You've already proved it to me, time and time again.
Baby you're one good friend.
You're the one that sends me flying and gently reels me in.
Baby you're one good friend. 
            
Submit corrections

↑ Back to top | Tablatures and chords for acoustic guitar and electric guitar, ukulele, drums are parodies/interpretations of the original songs. You may use it for private study, scholarship, research or language learning purposes only