» » »

Geographer - Caught A Fire Tabs

Artists:  A B C D E F G H I J K L M N O P Q R S T U V W X Y Z # 

Caught A Fire Tabs

(ver. 1) Click to play this song!
Geographer
 Rating:
4/5 (4 votes)

 Caught A Fire  lessons Tabs too difficult? Try these video lessons and learn fast
 
                Tuning:

e|---------------------------------------------------------------------------|
B|---------------------------------------------------------------------------|
G|-----7----7----7-----7-----9----9-----9---11-11-9-7------------------------|  repeat x4
D|---9---99---9-9--9-9---9-7---77---7-7--------------------------------------|
A|---------------------------------------------------------------------------|
E|---------------------------------------------------------------------------|
     
  first 2 times: intro, second 2 times: part of verse one

     "You were the one...."
e|---------------------------------------------------------------------------|
B|---------------------------5----5----5---11-11-9---7-----------------------|
G|-----7----7-----7----7-----------------------------------------------------|  repeat x2
D|---5---55---4-4---44---4-2---22---2-2--------------------------------------|
A|---------------------------------------------------------------------------|
E|---------------------------------------------------------------------------|






            
Submit corrections


        Caught A Fire  lessons Hard to play? Try these video lessons and learn fast Caught A Fire  lessons
        
↑ Back to top | Tablatures and chords for acoustic guitar and electric guitar, ukulele, drums are parodies/interpretations of the original songs. You may use it for private study, scholarship, research or language learning purposes only