» » »

Gentry Montgomery - If You Ever Stop Loving Me Tabs

Artists:  A B C D E F G H I J K L M N O P Q R S T U V W X Y Z # 

If You Ever Stop Loving Me Tabs

(ver. 1) Click to play this song!
Gentry Montgomery
 Rating:
3.7/5 (6 votes)

 If You Ever Stop Loving Me lessons Tabs too difficult? Try these video lessons and learn fast
 
                ----------------------------------------------------------------------------------
Montgomery Gentry - If You Ever Stop Loving Me
----------------------------------------------------------------------------------

$2 Food Stamp

h = hammer on
p = pull off
b = bend
/ = slide up
\ = slide down
~ = vibrato
() = harmonics
r = release
b^ = bend up and down

==========================================
Guitar 1 = clean electric
Guitar 2 = some distortion


INTRO (GTR. 1)
|-------------------------------------------------------------------------------------------|
|-1/3-3--1/5-5--1/8-8-7-8-7-8-7-7-----------------------------------------------------------|
|-2---2--2---4--2---------------------------------------------------------------------------|
|-0---0--0---0--0---0-----------------------------------------------------------------------|3X
|-3---2--3---3--3---------------0-----------------------------------------------------------|
|-------------------------------------------------------------------------------------------|


***Other easier way to play intro, still sounds good***
********************************************************
Clean guitar
|---------------------------------|
|-1/3-3---1/5-5---1\8-8-7-8-7-8-7-|
|---------------------------------|
|-0---0---0---0---0---------------|
|-------------------------------0-|
|---------------------------------|
********************************************************



INTRO/MAIN RIFF (GTR. 2) - *play intro on gtr. 1 once, then gtr. 2 kicks in*
|-------------------------------------------------------------------------------------------|
|-1/3-3--1/5-5--1/8-8-7-8-7-8-7-7-----------------------------------------------------------|
|-------------------------------------------------------------------------------------------|
|-------------------------------------------------------------------------------------------|2x
|-------------------------------------------------------------------------------------------|
|-------------------------------------------------------------------------------------------|

VERSE (GTR. 1)


C    [ x 3 0 2 1 x ]
C6   [ x 0 2 0 1 x ]
C/A  [ x x 2 0 1 3 ]


C
"My old man's, back hand, use to land,

C6
hard on, the side of my head.

C                             C/A
I just learned to stay out of his way"


VERSE (GTR. 2) "I've been in street fights..."
|-------------------------------------------------------------------------------------------|
|-------------------------------------------------------------------------------------------|
|---------------------5--3h5b-7-----5-5-----------------------------------------------------|
|----------------3h5b------------5--5-5-----------------------------------------------------|
|-3~--5~--7~--------------------------------------------------------------------------------|
|-------------------------------------------------------------------------------------------|

PRECHORUS (GTR. 2)
|-------------------------------------------------------------------------------------------|
|-------------------------------------------------------------------------------------------|
|-4~----5~-6~-------------------------------------------------------------------------------|
|-4~-4~-5~-x~-------------------------------------------------------------------------------|
|-2~-2~-x~-4~-------------------------------------------------------------------------------|
|-2~-2~-3~-4~-------------------------------------------------------------------------------|

CHORUS (GTR. 1)
|-------------------------------------------------------------------------------------------|
|-5-77-5-99--9-8-7-8-7-8-7-7----------------------------------------------------------------|
|-5-77-5-99--9-8-7-8-7-8-7-7----------------------------------------------------------------|
|-0-00-0-00--0------------------------------------------------------------------------------|
|-3-55-3-77--7------------------------------------------------------------------------------|
|-0-00-0-00--0------------------------------------------------------------------------------|

CHORUS (GTR. 2)
|-------------------------------------------------------------------------------------------|
|-------------------------------------------------------------------------------------------|
|-5~--7~--7/8-88-7/3------------------------------------------------------------------------|
|-x---x---x---xx-x--------------------------------------------------------------------------|
|-3~--5~--5/6-66-5/1------------------------------------------------------------------------|
|-------------------------------------------------------------------------------------------|

SOLO (GTR. 2)
|-------------------------------------------------------------------------------------------|
|-10h12-x--9h11-x--7h9-x--5h7-x--3h5-x-3h5/7-5-7-5-7-5---5----------------------------------|
|------------------------------------------------------7---6--------------------------------|
|-------------------------------------------------------------------------------------------|
|-------------------------------------------------------------------------------------------|
|-------------------------------------------------------------------------------------------|

|--------------------------------------------------------------------7----------------------|
|-10h12-x--9h11-x--7h9-x--5h7-x--3h5-x-3h5/7-5-7-5-7-5---5-7/9-7-9-7------------------------|
|------------------------------------------------------7------------------------------------|
|-------------------------------------------------------------------------------------------|
|-------------------------------------------------------------------------------------------|
|-------------------------------------------------------------------------------------------|

Thats pretty much it, uh.. just play the main riff, chorus a couple more times and thats 
whole
song. Enjoy.
            
Submit corrections


        If You Ever Stop Loving Me lessons Hard to play? Try these video lessons and learn fast If You Ever Stop Loving Me lessons
        
↑ Back to top | Tablatures and chords for acoustic guitar and electric guitar, ukulele, drums are parodies/interpretations of the original songs. You may use it for private study, scholarship, research or language learning purposes only