Home » G » Gentle Giant »

Gentle Giant - Nothing At All Tabs

Artists:  A B C D E F G H I J K L M N O P Q R S T U V W X Y Z # 

Nothing At All Tabs

(ver. 1) Click to play this song!
Gentle Giant
[Intro]

e|--------------------10---------------------------------------8-------------|
B|-----8-----------------------------------8---------------------------------|
G|------------12--------------12--------------------10---------------10------|
D|---------------------------------------------------------------------------|
A|---------------------------------------------------------------------------|
E|---------------------------------------------------------------------------|

e|--------------------7------------------------------------------------------|
B|-----8-----------------------------------8-------------------6-------------|
G|------------9----------------9---------------------8----------------8------|
D|---------------------------------------------------------------------------|
A|---------------------------------------------------------------------------|
E|---------------------------------------------------------------------------|            
Submit corrections

↑ Back to top | Tablatures and chords for acoustic guitar and electric guitar, ukulele, drums are parodies/interpretations of the original songs. You may use it for private study, scholarship, research or language learning purposes only