» » »

Gene Vincent - Be Bop A Lula Tabs

Artists:  A B C D E F G H I J K L M N O P Q R S T U V W X Y Z # 

Be Bop A Lula Tabs

(ver. 1) Click to play this song!
Gene Vincent
 Rating:
4/5 (4 votes)

 Be Bop A Lula lessons Tabs too difficult? Try these video lessons and learn fast
 
                Gtr I (E A D G B E) - '"Wee" Willie Williams - Rhythm Guitar'
Gtr II (E A D G B E) - 'Cliff Gallup - Lead Guitar'


             Chorus
  Q=124(8=s8)
  N.C.        E7
 4/4
  Gtr I
  W           q  q  q  q    q  q  q   q     q  q  q  q
|----------||-------------|---------------|--------------|
|----------||-5--5--5--5--|-5--5--5---5---|-5--5--5--5---|
|----------||-7--7--7--7--|-7--7--7---7---|-7--7--7--7---|
|----------||-6--6--6--6--|-6--6--6---6---|-6--6--6--6---|
|----------||-7--7--7--7--|-7--7--7---7---|-7--7--7--7---|
|----------||-------------|---------------|--------------|
|
| Gtr II
| W           W             H     E E E E   Q  Q  H
|----------||-------------|---------------|--------------|
|----------||-------------|---------------|--------------|
|----------||-------------|---------------|--------------|
|----------||-------------|-------------2-|--------------|
|----------||-------------|---------1h2---|--------------|
|----------||-------------|---------------|-0------------|


                  A7                            E7
  q  q  q   q     q  q  q  q    q  q  q   q     q  q  q  q
|---------------|-5--5--5--5--|-5--5--5---5---|--------------|
|-5--5--5---5---|-5--5--5--5--|-5--5--5---5---|-5--5--5--5---|
|-7--7--7---7---|-6--6--6--6--|-6--6--6---6---|-7--7--7--7---|
|-6--6--6---6---|-5--5--5--5--|-5--5--5---5---|-6--6--6--6---|
|-7--7--7---7---|-7--7--7--7--|-7--7--7---7---|-7--7--7--7---|
|---------------|-5--5--5--5--|-5--5--5---5---|--------------|
|
| H     E E E E   Q  Q  H       H     E E E E   Q  Q  H
|---------------|-------------|---------------|--------------|
|---------------|-------------|---------------|--------------|
|---------------|-------------|-------------2-|--------------|
|-------------2-|-------------|---------1h2---|--------------|
|---------1h2---|-0-----------|---------------|--------------|
|---------------|-------------|---------------|-0------------|


                  B7            A7              E7
  q  q  q   q     q  q  q  q    q   q   q  q    q  q  q  q
|---------------|-7--7--7--7--|-5---5---5--5--|--------------|
|-5--5--5---5---|-7--7--7--7--|-5---5---5--5--|-5--5--5--5---|
|-7--7--7---7---|-8--8--8--8--|-6---6---6--6--|-7--7--7--7---|
|-6--6--6---6---|-7--7--7--7--|-5---5---5--5--|-6--6--6--6---|
|-7--7--7---7---|-9--9--9--9--|-7---7---7--7--|-7--7--7--7---|
|---------------|-7--7--7--7--|-5---5---5--5--|--------------|
|
| H     E E E E   Q  Q  H       E E E E Q  Q    W
|---------------|-------------|---------------|--------------|
|---------------|-------------|---------------|--------------|
|-------------4-|-------------|-------2-------|--------------|
|---------3h4---|-------------|---1h2---------|--------------|
|---------------|-2-----------|---------0-----|--------------|
|---------------|-------------|---------------|--------------|


                   1st Verse
                    E7
        |-3-|
  q  q  E E E q     q  Q  H      q  Q  H        q  Q  H
|----------------||------------|--------------|------------|
|-5--5--5-5-5-5--||-5----------|-5------------|-5----------|
|-7--7--7-7-7-7--||-7----------|-7------------|-7----------|
|-6--6--6-6-6-6--||-6----------|-6------------|-6----------|
|-7--7--7-7-7-7--||-7----------|-7------------|-7----------|
|----------------||------------|--------------|------------|
|
| W                 Q  Q  H      Q  Q  E E Q    Q  Q  H
|----------------||-7----------|-7-------5-5--|-7----------|
|----------------||-9----------|-9-------7-7--|-9----------|
|----------------||-9----------|-9-------7-7--|-9----------|
|----------------||------------|--------------|------------|
|----------------||------------|--------------|------------|
|----------------||------------|--------------|------------|


  q  Q  H      q  Q  H      q  Q  H      W
|------------|------------|------------|------|
|-5----------|-5----------|-5----------|------|
|-7----------|-7----------|-7----------|------|
|-6----------|-6----------|-6----------|------|
|-7----------|-7----------|-7----------|------|
|------------|------------|------------|------|
|
| Q  Q  H      Q  Q  H      Q  Q  H      W
|-7----------|-7----------|-7----------|------|
|-9----------|-9----------|-9----------|------|
|-9----------|-9----------|-9----------|------|
|------------|------------|------------|------|
|------------|------------|------------|------|
|------------|------------|------------|------|


                         Chorus
                       $
                          A7
  |-3-| |-3-| |-3-|
  E E E E E E E E E q     q   q   q   q
|----------------------||-5---5---5---5--|
|-5-5-5-5-5-5-5-5-5-5--||-5---5---5---5--|
|-7-7-7-7-7-7-7-7-7-7--||-6---6---6---6--|
|-6-6-6-6-6-6-6-6-6-6--||-5---5---5---5--|
|-7-7-7-7-7-7-7-7-7-7--||-7---7---7---7--|
|----------------------||-5---5---5---5--|
|
| Gtr II
| W                       Q   Q   Q   Q
|----------------------||----12--14--12--|
|----------------------||----12----------|
|----------------------||----12----------|
|----------------------||----------------|
|----------------------||----------------|
|----------------------||----------------|


                       E7
   q   q     q   q     q     q     q   q
|--5---5-----5---5---|----------------------|
|--5---5-----5---5---|-5-----5-----5---5----|
|--6---6-----6---6---|-7-----7-----7---7----|
|--5---5-----5---5---|-6-----6-----6---6----|
|--7---7-----7---7---|-7-----7-----7---7----|
|--5---5-----5---5---|----------------------|
|
|  Q   E  E  Q   E E   E  E  E  E  Q   E  E
|-15--14-12-14--12---|----------------------|
|---------------12---|---12-14-12-15--14-12-|
|---------------12---|----------------------|
|--------------------|----------------------|
|--------------------|----------------------|
|--------------------|----------------------|


                                                                To Coda
                      B7               A7                E7
   q   q     q   q    q   q   q   q     q   q   q   q    q   q   q   q
|-------------------|-7---7---7---7--|--5---5---5---5--|-----------------|
|--5---5-----5---5--|-7---7---7---7--|--5---5---5---5--|-5---5---5---5---|
|--7---7-----7---7--|-8---8---8---8--|--6---6---6---6--|-7---7---7---7---|
|--6---6-----6---6--|-7---7---7---7--|--5---5---5---5--|-6---6---6---6---|
|--7---7-----7---7--|-9---9---9---9--|--7---7---7---7--|-7---7---7---7---|
|-------------------|-7---7---7---7--|--5---5---5---5--|-----------------|
|
|  Q   E  E  Q   Q    Q   Q   Q   Q     Q   Q   Q   Q    Q   Q   Q   Q
|-12----------------|----------------|-----------------|------------12---|
|-12--15-12-14--12--|----15--14--12--|-12--12--10--12--|----12--14--12---|
|-------------------|----------------|-13--13--11--13--|----13--14-------|
|-------------------|----------------|-----------------|-----------------|
|-------------------|----------------|-----------------|-----------------|
|-------------------|----------------|-----------------|-----------------|


                         Guitar Solo 1
                          E7
   q     q  q     q        q        q        q        q
|----------------------||-------------------------------------|
|--5-----5--5-----5----||--5--------5--------5--------5-------|
|--7-----7--7-----7----||--7--------7--------7--------7-------|
|--6-----6--6-----6----||--6--------6--------6--------6-------|
|--7-----7--7-----7----||--7--------7--------7--------7-------|
|----------------------||-------------------------------------|
|
|                          |--3--|  |--3--|  |--3--|  |--3--|
|  E  E  Q  E  E  E  E     E  E  E  E  E  E  E  E  E  E  E  E
|-12----------------12-||-15-12-14-12-14-12-15-12-14-12-14-12-|
|-12-12-14----12-14----||-------------------------------------|
|----------------------||-------------------------------------|
|----------------------||-------------------------------------|
|----------------------||-------------------------------------|
|----------------------||-------------------------------------|


   q        q        q        q
|-------------------------------------|
|--5--------5--------5--------5-------|
|--7--------7--------7--------7-------|
|--6--------6--------6--------6-------|
|--7--------7--------7--------7-------|
|-------------------------------------|
|
|  |--3--|  |--3--|  |--3--|  |--3--|
|  E  E  E  E  E  E  E  E  E  E  E  E
|-15-12-14-12-------------------------|
|-------------14-12----12-12-12-14-12-|
|-------------------14----------------|
|-------------------------------------|
|-------------------------------------|
|-------------------------------------|


                                 |---3---|  |--3---|  |--3---|
   q          q      q    q      E E     E  E E    E  E E    E  q
|------------------------------|-------------------------------------|
|--5----------5------5----5----|-5-5-----5--5-5----5--5-5----5--5----|
|--7----------7------7----7----|-7-7-----7--7-7----7--7-7----7--7----|
|--6----------6------6----6----|-6-6-----6--6-6----6--6-6----6--6----|
|--7----------7------7----7----|-7-7-----7--7-7----7--7-7----7--7----|
|------------------------------|-------------------------------------|
|
|  E  E      +E   E  E  E E  E   E     E    E    E    E    E    E  E
|-12-14pb15r(14)-12------------|-----/12---12---12---12---12---12-12-|
|-------------------14-12---12-|-----/12---12---12---12---12---12-12-|
|------------------------------|-------------------------------------|
|------------------------------|-------------------------------------|
|------------------------------|-------------------------------------|
|------------------------------|-------------------------------------|


  A7
   q   q   q    q         q      q    q     q
|--5---5---5----5-----|---5------5----5-----5-----|
|--5---5---5----5-----|---5------5----5-----5-----|
|--6---6---6----6-----|---6------6----6-----6-----|
|--5---5---5----5-----|---5------5----5-----5-----|
|--7---7---7----7-----|---7------7----7-----7-----|
|--5---5---5----5-----|---5------5----5-----5-----|
|
|  Q   Q   E  E E   E    +E   E  E  E E  E  E  E
|-12--12--14-12---/12-|-(12)-12-14-12---------12--|
|-12--12--14-12---/12-|-(12)-12-14-12---12-14-----|
|---------------------|---------------------------|
|---------------------|---------------------------|
|---------------------|---------------------------|
|---------------------|---------------------------|


  E7
   q      q     q      q       q      q    q     q
|---------------------------|-------------------------|
|--5------5-----5------5----|--5------5----5-----5----|
|--7------7-----7------7----|--7------7----7-----7----|
|--6------6-----6------6----|--6------6----6-----6----|
|--7------7-----7------7----|--7------7----7-----7----|
|---------------------------|-------------------------|
|
|  Q      E  E  Q      E  E    Q      E E +E   E E  E
|-14b15--14-12--------------|-------------------------|
|--------------14b15--14-12-|----------------------12-|
|---------------------------|-11b12--11-9-(9)-11------|
|---------------------------|-------------------------|
|---------------------------|-------------------------|
|---------------------------|-------------------------|


  B7                             A7
   q      q      q     q          q   q   q     q
|--7------7------7-----7-------|--5---5---5-----5----|
|--7------7------7-----7-------|--5---5---5-----5----|
|--8------8------8-----8-------|--6---6---6-----6----|
|--7------7------7-----7-------|--5---5---5-----5----|
|--9------9------9-----9-------|--7---7---7-----7----|
|--7------7------7-----7-------|--5---5---5-----5----|
|
|                      |--3--|
|  Q      Q      E  E  E  E  E    Q   Q   E  E  E  E
|---------------------------12-|-15--14--12-12----12-|
|-14b15--14b15--14-12-12-14----|-14--14--12-12-14-12-|
|------------------------------|------------------13-|
|------------------------------|---------------------|
|------------------------------|---------------------|
|------------------------------|---------------------|


  E7
    |---3---|  |--3---|  |--3---|
    E  E    E  E E    E  E E    E  E  E
|---------------------------------------|
|---5--5----5--5-5----5--5-5----5--5--5-|
|---7--7----7--7-7----7--7-7----7--7--7-|
|---6--6----6--6-6----6--6-6----6--6--6-|
|---7--7----7--7-7----7--7-7----7--7--7-|
|---------------------------------------|
|
|  +E     E    E    E    E    E    E  E
|-(12)----------------------------------|
|-(12)---12---15---12---14---12------12-|
|-(13)----------------------------13----|
|---------------------------------------|
|---------------------------------------|
|---------------------------------------|


                       2nd Verse
                        E7
   q     q   q   q      q  Q  H         q  Q  H
|--------------------||---------------|----------------|
|--5-----5---5---5---||-5-------------|-5--------------|
|--7-----7---7---7---||-7-------------|-7--------------|
|--6-----6---6---6---||-6-------------|-6--------------|
|--7-----7---7---7---||-7-------------|-7--------------|
|--------------------||---------------|----------------|
|
|  E  E  Q   Q   Q      Q  Q  Q   Q     Q  Q  Q   Q
|--------------------||---------------|----------------|
|-14-12-15--14-------||---------------|----------------|
|--------------------||---------------|----------------|
|--------------------||---------------|----------------|
|--------------------||---------------|----------------|
|---------------12\--||-0--------12\--|-0--------12\---|


  q  Q  H         q  Q  H         q  Q  H         q  Q  H
|---------------|---------------|---------------|----------------|
|-5-------------|-5-------------|-5-------------|-5--------------|
|-7-------------|-7-------------|-7-------------|-7--------------|
|-6-------------|-6-------------|-6-------------|-6--------------|
|-7-------------|-7-------------|-7-------------|-7--------------|
|---------------|---------------|---------------|----------------|
|
| Q  Q  Q   Q     Q  Q  Q   Q     Q  Q  Q   Q     Q  Q  Q   Q
|---------------|---------------|---------------|----------------|
|---------------|---------------|---------------|----------------|
|---------------|---------------|---------------|----------------|
|---------------|---------------|---------------|----------------|
|---------------|---------------|---------------|----------------|
|-0--------12\--|-0--------12\--|-0--------12\--|-0--------12\---|


                                                           Guitar Solo 2
                     D.S. al Coda &
                                     E7                     E7
             |-3-| |-3-| |-3-|
  W          E E E E E E E E E q     q     q     q   q      q   q   q    q
|----------|----------------------||---------------------||-------------------|
|----------|-5-5-5-5-5-5-5-5-5-5--||-5-----5-----5---5---||-5---5---5----5----|
|----------|-7-7-7-7-7-7-7-7-7-7--||-7-----7-----7---7---||-7---7---7----7----|
|----------|-6-6-6-6-6-6-6-6-6-6--||-6-----6-----6---6---||-6---6---6----6----|
|----------|-7-7-7-7-7-7-7-7-7-7--||-7-----7-----7---7---||-7---7---7----7----|
|----------|----------------------||---------------------||-------------------|
|
|                                    |-3-| |-3-|
| W          W                       E E E E E E E E E E    Q   Q   E  E E  E
|----------|----------------------||-----0-0-0-0-0-0-0-0-||-------------------|
|----------|----------------------||-3h5-----------------||----12--12------12-|
|----------|----------------------||---------------------||-------------------|
|----------|----------------------||---------------------||-----------14------|
|----------|----------------------||---------------------||-------------------|
|----------|----------------------||---------------------||-------------------|


    q    q    q    q    q   q    q      q
|---------------------|----------------------|
|---5----5----5----5--|-5---5----5------5----|
|---7----7----7----7--|-7---7----7------7----|
|---6----6----6----6--|-6---6----6------6----|
|---7----7----7----7--|-7---7----7------7----|
|---------------------|----------------------|
|
|  +Q    E  E E  E Q    Q   Q   +E   E  E  E
|---------------------|----12--(12)----------|
|-(12)----------------|-------------12-14p12-|
|-------12------------|----------------------|
|----------14---14----|----------------------|
|---------------------|----------------------|
|---------------------|----------------------|


                              A7
   q     q      q      q      q   q   q      q
|---------------------------|-5---5---5------5----|
|--5-----5------5------5----|-5---5---5------5----|
|--7-----7------7------7----|-6---6---6------6----|
|--6-----6------6------6----|-5---5---5------5----|
|--7-----7------7------7----|-7---7---7------7----|
|---------------------------|-5---5---5------5----|
|
|  E  E  E  E  +E   E  E  E   Q   Q   E  E  +Q
|-12-------12-(12)----------|----15--14-----------|
|----12h14-12-(12)-12-14p12-|---------------------|
|---------------------------|-----------14-(14)---|
|---------------------------|---------------------|
|---------------------------|---------------------|
|---------------------------|---------------------|


                                E7
   q    q      q      q          q   q    q       q
|--5----5------5------5-------|----------------------|
|--5----5------5------5-------|--5---5----5-------5--|
|--6----6------6------6-------|--7---7----7-------7--|
|--5----5------5------5-------|--6---6----6-------6--|
|--7----7------7------7-------|--7---7----7-------7--|
|--5----5------5------5-------|----------------------|
|
|                     |--3--|
|  E  Q    E  +E   E  E  E  E    Q   Q    E  +E   Q
|-12------12-(12)----------12-|-15--14--/12-(12)-----|
|---------12-(12)-12-12h14-12-|-14--14--/12-(12)-14--|
|----14-----------------------|------------------13--|
|-----------------------------|----------------------|
|-----------------------------|----------------------|
|-----------------------------|----------------------|


                           B7
   q     q    q     q       q      q     q    q
|------------------------|--7------7-----7----7----|
|--5-----5----5-----5----|--7------7-----7----7----|
|--7-----7----7-----7----|--8------8-----8----8----|
|--6-----6----6-----6----|--7------7-----7----7----|
|--7-----7----7-----7----|--9------9-----9----9----|
|------------------------|--7------7-----7----7----|
|
|  E  E  E  E E  E  E  E    Q      E  E  E  E E  E
|-12-12----12------------|----------------------15-|
|-12-12-14-12---12-14p12-|-14b15--14-12-14-12---14-|
|-------13---------------|-------------------------|
|------------------------|-------------------------|
|------------------------|-------------------------|
|------------------------|-------------------------|


  A7                     E7
    q    q     q    q     q      q         q     q
|---5----5-----5----5--|------------------------------|
|---5----5-----5----5--|--5------5---------5-----5----|
|---6----6-----6----6--|--7------7---------7-----7----|
|---5----5-----5----5--|--6------6---------6-----6----|
|---7----7-----7----7--|--7------7---------7-----7----|
|---5----5-----5----5--|------------------------------|
|
|                                |--3---|        |3-|
|  +Q    E  E  E  E Q     E  E  +E   E  E  E  E  E  Q
|-(15)--14-12-14-12----|------------------------------|
|-(14)--14-12-14-12----|-12-11-(11)-11-12-12-11-12----|
|----------------------|-13-12-(12)-12-13-13-12-13----|
|----------------------|---------------------------14-|
|----------------------|------------------------------|
|----------------------|------------------------------|


                                 Out-Chorus
                                  E7
   q      q         q     q       q  q  q  q
|------------------------------||--------------|
|--5------5---------5-----5----||-5--5--5--5---|
|--7------7---------7-----7----||-7--7--7--7---|
|--6------6---------6-----6----||-6--6--6--6---|
|--7------7---------7-----7----||-7--7--7--7---|
|------------------------------||--------------|
|
|         |--3---|        |3-|
|  E  E  +E   E  E  E  E  E  Q    W
|------------------------------||--------------|
|-12-11-(11)-11-12-12-11-12----||--------------|
|-13-12-(12)-12-13-13-12-13----||--------------|
|---------------------------14-||--------------|
|------------------------------||--------------|
|------------------------------||--------------|


                                              A7
  q  q  q   q    q  q  q  q    q  q  q   q    q  q  q  q
|--------------|-------------|--------------|-5--5--5--5---|
|-5--5--5---5--|-5--5--5--5--|-5--5--5---5--|-5--5--5--5---|
|-7--7--7---7--|-7--7--7--7--|-7--7--7---7--|-6--6--6--6---|
|-6--6--6---6--|-6--6--6--6--|-6--6--6---6--|-5--5--5--5---|
|-7--7--7---7--|-7--7--7--7--|-7--7--7---7--|-7--7--7--7---|
|--------------|-------------|--------------|-5--5--5--5---|
|
| H     E E Q    W             H     E E Q    Q  Q  Q  Q
|---------0----|-------------|---------0----|----3--2--0---|
|--------------|-------------|--------------|--------------|
|--------------|-------------|--------------|--------------|
|-----------2--|-------------|-----------2--|--------------|
|--------------|-------------|--------------|--------------|
|--------------|-------------|--------------|--------------|


                    E7
  q   q    q   q    q   q   q   q
|-5---5----5---5--|------------------|
|-5---5----5---5--|-5---5---5---5----|
|-6---6----6---6--|-7---7---7---7----|
|-5---5----5---5--|-6---6---6---6----|
|-7---7----7---7--|-7---7---7---7----|
|-5---5----5---5--|------------------|
|
| E E E E +H        Q   Q   Q   E  E
|-3-0-2-0-(0)-----|----12------------|
|-----------------|--------12--------|
|-----------------|------------13----|
|-----------------|---------------14-|
|-----------------|------------------|
|-----------------|------------------|


                         B7
   q   q      q     q    q   q   q      q
|----------------------|-7---7---7------7----|
|--5---5------5-----5--|-7---7---7------7----|
|--7---7------7-----7--|-8---8---8------8----|
|--6---6------6-----6--|-7---7---7------7----|
|--7---7------7-----7--|-9---9---9------9----|
|----------------------|-7---7---7------7----|
|
|  Q   E  E  +E   E Q    Q   Q   E  E  +Q
|----------------12----|---------------------|
|-15--14-12-(12)-------|----15--14-12-(12)---|
|----------------------|---------------------|
|----------------------|---------------------|
|----------------------|---------------------|
|----------------------|---------------------|


  A7                  E7
   q   q   q     q    q  q  q  q    q  E E E  E  +Q      +W
|--5---5---5-----5--|-------------|-------------------|---------*|
|--5---5---5-----5--|-5--5--5--5--|-5--5-5----5--(5)--|--(5)----*|
|--6---6---6-----6--|-7--7--7--7--|-7--7-7----7--(7)--|--(7)----*|
|--5---5---5-----5--|-6--6--6--6--|-6--6-6----6--(6)--|--(6)----*|
|--7---7---7-----7--|-7--7--7--7--|-7--7-7----7--(7)--|--(7)----*|
|--5---5---5-----5--|-------------|-------------------|---------*|
|
|  Q   Q   E  Q.      W             H      E  E  +Q      +W
|-------------------|-------------|----------12-(12)--|-(12)----*|
|-12---------12-----|-------------|----------12-(12)--|-(12)----*|
|-----12------------|-------------|----------13-(13)--|-(13)----*|
|---------14--------|-------------|-------------------|---------*|
|-------------------|-------------|-------------------|---------*|
|-------------------|-------------|-------------------|---------*|
            
Submit corrections


        Be Bop A Lula lessons Hard to play? Try these video lessons and learn fast Be Bop A Lula lessons
        
↑ Back to top | Tablatures and chords for acoustic guitar and electric guitar, ukulele, drums are parodies/interpretations of the original songs. You may use it for private study, scholarship, research or language learning purposes only