» » »

Genesis - I Can't Dance Tabs

Artists:  A B C D E F G H I J K L M N O P Q R S T U V W X Y Z # 

I Can't Dance Tabs

(ver. 3) Click to play this song!
Genesis
 Rating:
4/5 (4 votes)
                "(2)
This is finally the (kinda) right way to play it!

This is the original album version which is in Bb. For the later live ones, 
just go down two steps.



Intro, verses, chorus goes something like this;

e|------------------------------------------|
B|------------------------------------------|
G|------------------------------------------|
D|---8-8-8-8----8-8-8----8-8-8-8----6-------|
A|---6-6-8-8----8-6-8----6-6-8-8----6-4-6---|
E|---6-6-6-6----6-6-6----6-6-6-6----4-4-6---|

At the end of the choruses "I'm just standing here selling everything"

e|----------------------|
B|----------------------|
G|------6-8-------------|
D|--8-8-6-8-8-----------|
A|--8-6-4-6-8-----------|
E|--6-6-----6-----------|

And then the bridge which just goes like;


  F#                         Fm
"Checkin' everything is in place
           D#
You never know whos looking on
C#               B                  G#
The perfect body, with the perfect face"

   F#  Fm  D#     C#   B   G#
e|-----------------------------------|
B|-----------------------------------|
G|----------8------6---4-------------|
D|--4---3---8------6---4---4---------|
A|--4---3---6------4---2---6---------|
E|--2---1------------------6---------|
"            
Submit corrections

↑ Back to top | Tablatures and chords for acoustic guitar and electric guitar, ukulele, drums are parodies/interpretations of the original songs. You may use it for private study, scholarship, research or language learning purposes only