» » »

G-Eazy - You Got Me Tabs

Artists:  A B C D E F G H I J K L M N O P Q R S T U V W X Y Z # 

You Got Me Tabs

(ver. 1) Click to play this song!
G-Eazy
 Rating:
4.3/5 (22 votes)

 You Got Me lessons Tabs too difficult? Try these video lessons and learn fast
 
                [Hook]
e|--------|--------|--------|--------|---|
B|--------|--------|--------|--------|---|
G|5-------|5-------|5-------|5-------|5--|
D|6--6-4-3|6--6-4-3|6--6-4-3|6--6-4-3|6--|
A|6--6-4-3|6--6-4-3|6--6-4-3|6--6-4-3|6--|
E|4--4-2-1|4--4-2-1|4--4-2-1|4--4-2-1|4--|

[Verse 1]
e|--------|--------|--------|--------|--------|--------|---|
B|--------|--------|--------|--------|--------|--------|---|
G|5-------|5-------|5-------|5-------|5-------|5-------|5--|
D|6--6-4-3|6--6-4-3|6--6-4-3|6--6-4-3|6--6-4-3|6--6-4-3|6--|
A|6--6-4-3|6--6-4-3|6--6-4-3|6--6-4-3|6--6-4-3|6--6-4-3|6--|
E|4--4-2-1|4--4-2-1|4--4-2-1|4--4-2-1|4--4-2-1|4--4-2-1|4--|

[Hook]
e|--------|--------|--------|--------|---|
B|--------|--------|--------|--------|---|
G|5-------|5-------|5-------|5-------|5--|
D|6--6-4-3|6--6-4-3|6--6-4-3|6--6-4-3|6--|
A|6--6-4-3|6--6-4-3|6--6-4-3|6--6-4-3|6--|
E|4--4-2-1|4--4-2-1|4--4-2-1|4--4-2-1|4--|

[Verse 2]
e|--------|--------|--------|--------|--------|--------|---|
B|--------|--------|--------|--------|--------|--------|---|
G|5-------|5-------|5-------|5-------|5-------|5-------|5--|
D|6--6-4-3|6--6-4-3|6--6-4-3|6--6-4-3|6--6-4-3|6--6-4-3|6--|
A|6--6-4-3|6--6-4-3|6--6-4-3|6--6-4-3|6--6-4-3|6--6-4-3|6--|
E|4--4-2-1|4--4-2-1|4--4-2-1|4--4-2-1|4--4-2-1|4--4-2-1|4--|

[Hook]
e|--------|--------|--------|--------|---|
B|--------|--------|--------|--------|---|
G|5-------|5-------|5-------|5-------|5--|
D|6--6-4-3|6--6-4-3|6--6-4-3|6--6-4-3|6--|
A|6--6-4-3|6--6-4-3|6--6-4-3|6--6-4-3|6--|
E|4--4-2-1|4--4-2-1|4--4-2-1|4--4-2-1|4--|

[Bridge]
e|--------|--------|
B|--------|--------|
G|5-------|5-------|
D|6--6-4-3|6--6-4-3|
A|6--6-4-3|6--6-4-3|
E|4--4-2-1|4--4-2-1|

[Hook]
e|--------|--------|--------|--------|---|
B|--------|--------|--------|--------|---|
G|5-------|5-------|5-------|5-------|5--|
D|6--6-4-3|6--6-4-3|6--6-4-3|6--6-4-3|6--|
A|6--6-4-3|6--6-4-3|6--6-4-3|6--6-4-3|6--|
E|4--4-2-1|4--4-2-1|4--4-2-1|4--4-2-1|4--|

[Some kind of melody line u can do between parts]
e|--------|11-11-10-9|--------|11-11-10-9|
B|9--9-7-6|9---9-7--6|9--9-7-6|9---9-7--6|
G|--------|----------|--------|----------|
D|--------|----------|--------|----------|
A|--------|----------|--------|----------|
E|--------|----------|--------|----------|            
Submit corrections


        You Got Me lessons Hard to play? Try these video lessons and learn fast You Got Me lessons
        
↑ Back to top | Tablatures and chords for acoustic guitar and electric guitar, ukulele, drums are parodies/interpretations of the original songs. You may use it for private study, scholarship, research or language learning purposes only